» »

A, T Shirt Money Tabs (ver.2)

Artists:  A B C D E F G H I J K L M N O P Q R S T U V W X Y Z # 

T Shirt Money Tabs (ver.2)

A Tabs
Rating:
0/5 (0 votes)
T Shirt Money lessons Tabs too difficult? Try these video lessons and learn fast
                T-shirt Money



verse:

G|7-7--9-9--12-12--14-14--14--14------2-----2-----2-----2-----2-|
D|----------------------------------0-----0-----0-----0-----0---|
A|5-5--7-7--10-10--12-12--12--12--2-----2-----2-----2-----2-----|
D|--------------------------------------------------------------|

G|7-7--9-9--12-12--11-11--11--11----------------------------------|
D|--------------------------------5-5-5-5-5-5-5-5-5-5-5-5-5-5-5-5-|
A|5-5--7-7--10-10--9--9---9---9---5-5-5-5-5-5-5-5-5-5-5-5-5-5-5-5-|
D|--------------------------------5-5-5-5-5-5-5-5-5-5-5-5-5-5-5-5-|

chorus 1:

D|9-9-9-9-9-9-9-9-12----11----12--5-5-5-5-5-5-5-5-5-5-5-5-5-5-5-5-|
A|9-9-9-9-9-9-9-9-9-9-9-9-9-9-9-9-5-5-5-5-5-5-5-5-5-5-5-5-5-5-5-5-|
D|9-9-9-9-9-9-9-9-9-9-9-9-9-9-9-9-5-5-5-5-5-5-5-5-5-5-5-5-5-5-5-5-|

D|9-9-9-9-9-9-9-9-12----11----12--7-7-7-7-7-7-7-7-7-7-7-7-7-7-7-7-|
A|9-9-9-9-9-9-9-9-9-9-9-9-9-9-9-9-7-7-7-7-7-7-7-7-7-7-7-7-7-7-7-7-|
D|9-9-9-9-9-9-9-9-9-9-9-9-9-9-9-9-7-7-7-7-7-7-7-7-7-7-7-7-7-7-7-7-|

chorus 2:

D|2-2-2-2-2-2-2-2-2-2-2-2-2-0-0-0-5-5-5-5-5-5-5-5-5-5-5-5-5-5-5-0-|
A|2-2-2-2-2-2-2-2-2-2-2-2-2-0-0-0-5-5-5-5-5-5-5-5-5-5-5-5-5-5-5-0-|
D|2-2-2-2-2-2-2-2-2-2-2-2-2-0-0-0-5-5-5-5-5-5-5-5-5-5-5-5-5-5-5-0-|

D|2-2-2-2-2-2-2-2-2-2-2-2-2-0-0-0-7-7-7-7-7-7-7-7-7-7-7-7-7-7-7-7-|
A|2-2-2-2-2-2-2-2-2-2-2-2-2-0-0-0-7-7-7-7-7-7-7-7-7-7-7-7-7-7-7-7-|
D|2-2-2-2-2-2-2-2-2-2-2-2-2-0-0-0-7-7-7-7-7-7-7-7-7-7-7-7-7-7-7-7-|

solo:

E|-----------------------------------------------------|
B|8/(10)-8/(10)--6/(8)-6/(8)--5/(7)-5/(7)--------------|
G|-----------------------------------------5/(7)-5-----|(7)
D|-----------------------------------------------------|
A|-----------------------------------------------------|
D|-----------------------------------------------------|

E|---------------------------------------------------------|
B|10/(12)\(10)/(12)\(10)/(12)---------------9-10-----------|
G|-------------------------------------9-12------7-8-9-----|
D|-----------------------------------------------------8-9-|
A|---------------------------------------------------------|
D|---------------------------------------------------------|

E|-----------------------------------------------------|
B|8/(10)-8/(10)--6/(8)-6/(8)--5/(7)-5/(7)--------------|
G|-----------------------------------------5/(7)-5-----|(7)
D|-----------------------------------------------------|
A|-----------------------------------------------------|
D|-----------------------------------------------------|

E|----------------------------------------------------------------------------|
B|14/(15)\(14)/(15)\(14)/(15)------15/(17)---\(15)-14-12----------------------|
G|-------------------------------------------------------14-11-12-14----------|
D|-------------------------------------------------------------------14---12\-|
A|----------------------------------------------------------------------------|
D|----------------------------------------------------------------------------|

structure:

verse x 3
chorus 1
verse x 2
chorus 1
chorus 2
verse (solo)
chorus 1
chorus 2
chorus 1
chorus 2

/ and \ represent a bend to the note in brackets.
            

comments powered by Disqus
↑ Back to top | A Tabs for T Shirt Money. Lyrics for acoustic guitar and electric guitar. Tablatures and chords are parodies/interpretations of the original songs. You may use it for private study, scholarship, research or language learning purposes only