» »

Starbucks Bass tabs (ver.3)

Artists:  A B C D E F G H I J K L M N O P Q R S T U V W X Y Z # 

Starbucks Bass tabs (ver.3)

A
Rating:
0/5 (0 votes)

Hard to play? Try these video lessons and learn fast.
                
Intro
G:----------------------------------|
D:----------------------------------|
A:-77777777777777777777777777777777-|x1
E:----------------------------------|

1st Verse
G:------------------|  |----------------------------------|
D:------------------|  |----------------------------------|
A:-7~--2~-----------|x2|-7777777722222222-----------------|x1 
E:---------2~--5~---|  |-----------------2222222255555555-|

G:----------------------------------|
D:----------------------------------|
A:-77777777222222225555555522222222-|x1
E:----------------------------------|

1st Chorus
G:-------------------|  |------------------|
D:-------------------|  |------------------|
A:-------------------|x3|---------00000000-|x1
E:-0---77--22--55555-|  |-00000000---------|

G:-------------------|
D:-------------------|
A:-------------------|x2
E:-0---77--22--55555-|

2nd Verse
G:----------------------------------|
D:----------------------------------|
A:-7777777722222222-----------------|x3
E:-----------------2222222255555555-|

G:----------------------------------|
D:----------------------------------|
A:-77777777222222225555555522222222-|x1
E:----------------------------------|

2nd Chorus
G:-------------------|  |------------------|
D:-------------------|  |------------------|
A:-------------------|x3|---------00000000-|x1
E:-0---77--22--55555-|  |-00000000---------|

G:-------------------|
D:-------------------|
A:-------------------|x3
E:-0---77--22--55555-|

Bridge
G:-----------------------------------------------------------------------|
D:-----------------------------------------------------------------------|
A:-22222222222222222222222222222222555555555555555/7/555555555555555/7/5-|x1
E:-----------------------------------------------------------------------|

G:---------------------------------|
D:---------------------------------|
A:22222222222222222222222222222222-|x1
E:---------------------------------|

G:------------------|  |---------------------------------|
D:------------------|  |---------------------------------|
A:------------------|x2|---------------------------------|x2
E:-0~--2~--4~--5~---|  |-00000000222222224444444455555555|

Final Chorus
G:-------------------|  |------------------|  
D:-------------------|  |------------------|
A:-------------------|x3|---------00000000-|x1  
E:-0---77--22--55555-|  |-00000000---------|  

G:-------------------|  |------------------|  
D:-------------------|  |------------------|
A:-------------------|x3|---------00000000-|x1  
E:-0---77--22--55555-|  |-00000000---------|  

Outro
G:-------------------|  |------------------------|
D:-------------------|  |------------------------|
A:-------------------|x3|------------------------|x1 
E:-0---77--22--55555-|  |-00000000555555550~---0-|
            
Hard to play? Try these video lessons and learn fast. | Correct




comments powered by Disqus
↑ Back to top | Tablatures and chords are parodies/interpretations of the original songs. You may use it for private study, scholarship, research or language learning purposes only