>
 >
Chelsea Smile

Chelsea Smile Guitar Tabs

8 Foot Sativa - Chelsea Smile chords, tabs, tablatures, lyrics

Guitar lessons | Add/correct | Request | Top 50 tabs Artists:  A B C D E F G H I J K L M N O P Q R S T U V W X Y Z 0-9

Chelsea Smile Guitar Tabs – 8 Foot Sativa

CD, Sheet music, Poster

Do you like Chelsea Smile? Share with your friends now
TabsTabs v2Tabs v3


* My name is colten b. and i am 13.
* I figured out the whole song. 
* This is what i think it is. 
* i think its about 95 percent right.
* This is the only full song tab there is right now

p-pulloff
*-palm mute



                           INTRO
c#|--------------------------------------------------------|
G#|--------------------------------------------------------|
E |------------7/9--9--9/10-10-----------------------------|
B |----------------------------------7---------------------|
F#|------------5/7--7--7/8--8----------10-8--7-8-10--------|
b |-0--000-0-00----------------8-888-----------------7-8-10|

|----------------------------------------------------------|
|----------------------------------------------------------|
|------------7/9--9--9/10-10-------------------------------|
|----------------------------------7-----------------------|
|------------5/7--7--7/8--8---------10-8-------------------|
|-0--000-0-00----------------8-888--------7-10-11-11-------|

|----------------------------------------------------------|
|----------------------------------------------------------|
|-----------7/9--9--9/10-10--------------------------------|
|--------------------------------7-----7-------------------|
|-----------5/7--7--7/8--8---------------10-8-7------7-8-10|
|0--000-0-00----------------8-88----8-8----------10-10-----|

___________________________end of intro___________________________________





                Chorus             x4
|----------------------------------------------------------|
|----------------------------------------------------------|
|----------------------------------------------------------|
|--5--------5---------------------5-7-8--------------------|
|----7-6-5----7-8-5---------5-7-8--------------------------|
|0--------------------5-7-8--------------------------------|

               verse             x4
|----------------------------------------------------------|
|----------------------------------------------------------|
|----------------------------------------------------------|
|-7--7---------7--4-4--5--5-4-2----------------------------|
|-5--5---------5--2-2--3-----------------------------------|
|--0----00000----------------------------------------------|



                      Then back to the intro  x1

                      Then play chorus again  x2

                      play verse again        x4

                      intro again             x1

                          
                                 x4
|--------------------------------------------------------------------------|
|--------------------------------------------------------------------------|
|--------------------------------------------------------------------------|
|--------------------------------------------------------------------------|
|-9999999999--55555555555--222222222222----5---4---7p0---------------------|
|----------------------------------------0-0-0-0-0-0---*0-*7-*6-*4-*3-*2-*0|


                    play chorus again         x4
 
                    play verse                x4

                    play intro                x1





Comments


Popular 8 Foot Sativa tabs & chords
I Live My Death Bass Tabs
8 Foot Sativa 1 Tabs
Destined To Be Dead Tabs
Disorder Tabs
Grown Aggression Tabs
Gutless Tabs
I Live My Death Intro Tabs
I Live My Death Intro 1 Tabs
Mentally Castrated Tabs
Perpetual Torment Intro Tabs


Song lyrics



↑ Back to top | Tablatures and chords are parodies/interpretations of the original songs. You may use it for private study, scholarship, research or language learning purposes only
© 2014 AZChords.com Contact us | Privacy policy | DMCA | Add/correct tabs | Request tabs | Top 50 tabs