» » »

Unfocused Bass tabs (ver.1)

Artists:  A B C D E F G H I J K L M N O P Q R S T U V W X Y Z # 

Unfocused Bass tabs (ver.1)

88 Fingers Louie
Rating:
0/5 (0 votes)

Tabs too difficult? Try these video lessons and learn fast.
                INTRO:

G----------------------------------------------|
D---12-11-9-7--12-11-9-14--12-11-9-11-11-11-11-|
A-9--------------------------------------------|
E----------------------------------------------|

G----------------------------------------------|
D-12-11-9---------------12-11-9----------------|
A---------12-11-9-9-9-9---------12-11-7-9-11-12|
E----------------------------------------------|

G------------------------------10-11-13-11-10--|
D-12-11-9-7---9-11-12--------------------------|
A-----------7----------12-11-------------------|
E----------------------------------------------|

G-11-9------------11/13-14-15-14-13\9----------|
D------12-11-9-12---------------------11-9\7/9-|
A----------------------------------------------|
E----------------------------------------------|

G----------------------------------------------|
D-11-11-9-7------------------------------------|
A-----------11-9-------------------------------|
E----------------2------------------------------|

VERSE:1

G----------------------------------------------|
D----------------------------------------------|
A-----------5-4---4-5-7-----------5-4---5-4---4|
E-2-0-2-0-0----5--------2-0-2-0-0-----5-----5-----|

G----------------------------------------------|
D----------------------------------------------|
A-5-7----------5-4---5-4---4-5-7-----------5-4-|
E----2-0-2-0-0-----5-----5-------2-0-2-0-0-----|

G----------------------------------------------|
D----------------------------------------------|
A---5-4---7-9-11-------------------------------|
E-5-----5--------------------------------------|

CHORUS:

G----------------------------------------------|
D----------------------------------------------|
A-5-4-------2-----------5-4-------2------------|
E-----5-2-0---2-0-2-0-2-----5-2-0---2-0-2------|


VERSE:2
G----------------------------------------------|
D----------------------------------------------|
A---------5-4---5-4---4-5-7---------5-4----5-4-|
E-2-0-2-0-----5-----5-------2-0-2-0-----5------|

G----------------------------------------------|
D----------------------------------------------|
A---7-9-11-------------------------------------|
E-5--------------------------------------------|
CHORUS
G----------------------------------------------|
D----------------------------------------------|
A-5-4-------2-----------5-4-------2------------|
E-----5-2-0---2-0-2-0-2-----5-2-0--------------||


G----------------------------------------------|
D----------------------------------------------|
A---------5-5-5-5---------4-4-4-4--------------| X5
E-2-2-2-2---------5-5-5-5----------------------|

G----------------------------------------------|
D----------------------------------------------|
A---------5-5-5-5------------------------------|
E-2-2-2-2---------5-5-5-5----------------------|

REPEAT VERSE 2 AND CHORUS
END
            
Tabs too difficult? Try these video lessons and learn fast.




comments powered by Disqus
↑ Back to top | Tablatures and chords are parodies/interpretations of the original songs. You may use it for private study, scholarship, research or language learning purposes only