» » »

88 Fingers Louie, Intellectual Lover Tabs (ver.1)

Artists:  A B C D E F G H I J K L M N O P Q R S T U V W X Y Z # 

Intellectual Lover Tabs (ver.1)

88 Fingers Louie Tabs
Rating:
0/5 (0 votes)
Intellectual Lover lessons Tabs too difficult? Try these video lessons and learn fast
                88 Fingers Louie
The Dom Years (1997)


Intro/Verse:
e|--------------------------------------------------------------------------|
B|--------------------------------------------------------------------------|
G|-9--9--9-9-9--------------------------------------------------------------|
D|-9--9--9-9-9--7--7-7-7--7-7-7-11--11--11-11-11--9--9-9-9--9-9-9-----------|
A|-7--7--7-7-7--7--7-7-7--7-7-7-11--11--11-11-11--9--9-9-9--9-9-9-----------|
E|--------------5--5-5-5--5-5-5--9---9---9--9--9--7--7-7-7--7-7-7-----------|

Can't hear what you're saying
Blah blah bl-bl-bl-blah blah blah blah
Talk talk away
I won't listen anyway, oh no
You think I'm being a baby
Well you're exactly right
Keep treating me that way
Doesn't give me the right

Chorus:
e|--------------------------------------------------------------------------|
B|--------------------------------------------------------------------------|
G|--------------9--9-9-9--9-9-9---------------9--9-9-9--9-9-9---------------|
D|-7--7--7-7-7--9--9-9-9--9-9-9--7--7--7-7-7--9--9-9-9--9-9-9---------------|
A|-7--7--7-7-7--7--7-7-7--7-7-7--7--7--7-7-7--7--7-7-7--7-7-7---------------|
E|-5--5--5-5-5-------------------5--5--5-5-5--------------------------------|

My lover's an intellectual
My lover's an intellectual


Intro x2
Verse x4
Chorus x2
Intro x2
Verse x4
Chorus x4
Verse(w/o lyrics) x4
Chorus x2 (play last chord once second time)
            
Submit corrections

comments powered by Disqus
↑ Back to top | 88 Fingers Louie Tabs for Intellectual Lover. Lyrics for acoustic guitar and electric guitar. Tablatures and chords are parodies/interpretations of the original songs. You may use it for private study, scholarship, research or language learning purposes only