>
 >
Blink

Blink Bass Tabs

88 Fingers Louie - Blink chords, tabs, tablatures, lyrics

Guitar lessons | Add/correct | Request | Top 50 tabs Artists:  A B C D E F G H I J K L M N O P Q R S T U V W X Y Z 0-9

Blink Bass Tabs – 88 Fingers Louie

CD, Sheet music, Poster

Do you like Blink? Share with your friends now
Bass Tabs
-------------------------------------------------------------
-------------------------------------------------------------
Intro1 x6 then to riff 1               Intro 2
G|--------------------------|     |----------------| 
D|--------------------------|     |----------------|
A|--------------------------|     |----------------|
E|---7-7-7-5-4-4>-5-4-2-4---|     |---4>-5-4-2-4---|
Riff 1
G|-------------------------------------| 
D|-------------------------------------| 
A|-----------7-6-7----------7-6-4-2----| 
E|--4>-5>-7>-------4>-5>-7>------------|

Intro 2
Intro x4
Riff 2 x1
G|-----------S-----------------------------------| 
D|-----------T-----------------------------------| 
A|-----------O------7-6-4-6----------7-6-4-2-----| 
E|--44--5>---P---7>---------4>-5>-7>-------------|
Riff 3 x1
G|--------------------------------------------------------------------------| 
D|--------------------------------------------------------------------------| 
A|-7>---------------7-6-4-2-0--------------------7-6-4-2--7>----------------| 
E|----4>-5-4-2-4-7>-----------4-0>-4>-5-4-2-4-7>------------4>-5-4-2-4-7>---|
Riff 4 x1
G|-R------------------------------------------------------------------| 
D|-E------------------------------------------------------------------| 
A|-S---------------------------7>----------7-6-7----------7-6-4-2-----| 
E|-T-0>-(Quiet)-7-7-7-4>-5>-7>----4>-5>-7>-------4>-5>-7>-------------|
Bass solo x1
G|----------------------------------------------------------------------------------| 
D|-------------------7777-6-4-7777-6-4-9--------------------------------------------| 
A|---------------------------------------7>-9>-121212121111-9-7--121212121111-9-7---| 
E|-55454545-55454545----------------------------------------------------------------|
Riff 5 
G|-----------------------------------------|--------------------------| 
D|-------------------x-2-------------------|----------x-2-------------| 
A|--7>--9>-1212121211-9-11-1212121211-9-11-|--------------------------| 
E|-----------------------------------------|-0>-4>-555-4-2-555-4-2----|
Riff 6  x3
G|--------------------| 
D|--------------------| 
A|--------------------| 
E|--0>-444-5-4-5-7>---|
Riff 7
G|--------------------------| 
D|--------------------------| 
A|-------------------5-6-7--| 
E|--0>-444-5-4-5-7-9--------|

Intro 2
Intro 1 x2
End
G|----------------| 
D|----------------| 
A|----------------| 
E|--5-4--7(hold)--|

-------------------------------------------------------------





Comments


Popular 88 Fingers Louie tabs & chords
100 Proof 2 Bass Tabs
Go Away Bass Tabs
Go Away 1 Bass Tabs
Ritter 1 Bass Tabs
Tomorrow Starts Today Bass Tabs
Too Many Bass Tabs
100 Proof Tabs
Drunk & Ugly Tabs
In The John Tabs
Intellectual Lover Tabs


Song lyrics



↑ Back to top | Tablatures and chords are parodies/interpretations of the original songs. You may use it for private study, scholarship, research or language learning purposes only
© 2014 AZChords.com Contact us | Privacy policy | DMCA | Add/correct tabs | Request tabs | Top 50 tabs