» » »

Still On It Tabs (ver.1)

Artists:  A B C D E F G H I J K L M N O P Q R S T U V W X Y Z # 

Still On It Tabs (ver.1)

7 Seconds
Rating:
0/5 (0 votes)

Hard to play? Try these video lessons and learn fast.
                7 Seconds - Still On It

this is a pretty easy song.

KEY to tab:
*    = play about 6x
/    = slide up
~    = let ring
ps\\ = pickslide

*main riff:*
e-------|
B-------|
G-------|
D-9*-8*-|
A-x--x--|
E-7--6--|

INTRO
gtr 1: main 4x, gtr 2:
e-------------------------|
B-------------------------|
G-------------------------|
D-9~----------9~----------|
A-9-----------9------ps\\-|
E-7-----------7-----------|

PREVERSE
gtr 1: main 4x, gtr 2:
e-------------------------------|
B-------------------------------|
G----11*-----10*----11*-----10*-|
D-9*--x--12*--x--9*--x--12*--x--|
A-x---9---x---8--x---9---x---8--|
E-7------10------7------10------|

VERSE (gtr 1: main 8x)

CHORUS (both)
e--------------------(2x)|----|
B------------------------|----|
G----9*----9*----9*-11**-|-9~-|
D-9*-9--9*-9--9*-9--11---|-9--|
A-9--7--9--7--9--7---9---|-7--|
E-7-----7-----7----------|----|

repeat preverse, verse, chorus

e-------------------------------(2x)|----------|
B-----------------------------------|----------|
G------------------------9*---------|-----11**-|
D-8/9*-8/9*-8/9*-8/9*-4*-9--9*-8/9*-|-4**-11---|
A-8/9--8/9--8/9--8/9--4--7--9--8/9--|-4----9---|
E-6/7--6/7--6/7--6/7--2-----7--6/7--|-2--------|

then repeat chorus 2x, second time guitar 1 plays this:
e------------------------------| 2x
B------------------------------|
G----8/9*----8/9*----8/9*-11**-|
D-9*-x-x--9*-x-x--9*-x-x---x---|
A-x--6/7--x--6/7--x--6/7---9---|
E-7-------7-------7------------|

ENDING
e--gtr.1---|--gtr.2---|
B----------|----------|
G----------|-------9~-|
D-9~-8~-2~-|-9~-8~-x--|
A-9--8--2--|-x--x--7--|
E-7--6--0--|-7--6-----|
            
Hard to play? Try these video lessons and learn fast. | Correct




comments powered by Disqus
↑ Back to top | Tablatures and chords are parodies/interpretations of the original songs. You may use it for private study, scholarship, research or language learning purposes only