>
 >
Young Till I Die

Young Till I Die Bass Tabs

7 Seconds - Young Till I Die chords, tabs, tablatures, lyrics

Guitar lessons | Add/correct | Request | Top 50 tabs Artists:  A B C D E F G H I J K L M N O P Q R S T U V W X Y Z 0-9

Young Till I Die Bass Tabs – 7 Seconds

CD, Sheet music, Poster

Do you like Young Till I Die? Share with your friends now
Bass TabsTabs
part1
G----------|
D-666664---|
A-------64-|
E----------|

part2
G----------------------------------|
D-22222222-------------------------|
A----------2222224---24454---24454-|
E------------------44------44------|

part3
G----------------------|
D-22222222---------5/6-|
A----------2222224-----|
E----------------------|

part4                      4X
G----------------------------|
D-22-222---------------------|
A--------22-44---------------|
E--------------44-444-44-444-|

part5             2X
G-------------------|
D-------------------|
A-------------------|
E-22222222-44444444-|

part6
G-----------------------------------------------|
D-2-222-2222---------------------4-2---------44-|
A------------2-222-2244----22-44-------22-44----|
E-----------------------44----------44----------|

part7
G----------------------------------------|
D-2-222-2222-----------64-----4-64-----4-|
A------------2-222-224---64-46----64-46--|
E--------------------------4--------4----|

repeat part4

G--------------|
D-22-222-------|
A--------22-44-|
E--------------|

repeat part1
repeat part4 2X
repeat part5 2X

G-------------------------------------------|
D-2-222-222---------------------------------|
A------------2-222-224----22-44----22-44-66-|
E----------------------44-------44----------|

G-------------------------------------|
D-2-222-222------------64---4--64---4-|
A------------2-222-224---646-6---646--|
E-------------------------------------|


G--------------------------------------|
D-22-222-------------------------------|
A--------22-44-------------------------|
E--------------44---4-4444-44---4-4444-|

repeat part3
repeat part1
repeat part2

G------------------------------------|
D-22222222---------64-----4-64-----4-|
A----------2222224---64-46----64-46--|
E----------------------4--------4----|

G-------------------------------------------|
D-22222222----------------------------------|
A----------2222224-----22-44-66----22-44-66-|
E-------------------44----------44----------|

repeat part3

i hope thats the way its played... have fun..
  xxSID





Comments


Popular 7 Seconds tabs & chords
Bully Bass Tabs
Diehard Bass Tabs
Heavy Metal Jocks Bass Tabs
Here's Your Warning Bass Tabs
99 Red Balloons Tabs
Anti-Klan Tabs
Here's Your Warning 1 Tabs
I Hate Sports Tabs
Not Just Boys' Fun Tabs
Best Friend Ukulele


Song lyrics



↑ Back to top | Tablatures and chords are parodies/interpretations of the original songs. You may use it for private study, scholarship, research or language learning purposes only
© 2014 AZChords.com Contact us | Privacy policy | DMCA | Add/correct tabs | Request tabs | Top 50 tabs