» » »

7 Seconds, Bully Bass tabs (ver.1)

Artists:  A B C D E F G H I J K L M N O P Q R S T U V W X Y Z # 

Bully Bass tabs (ver.1)

7 Seconds Tabs
 Rating:
4/5 (4 votes)
Bully lessons Tabs too difficult? Try these video lessons and learn fast
1
                [xxx][xxx][xxx][xxx][xxx][xxx]
[x]			   [x]
[x]    made by huelsiXX    [x]
[x]			   [x]
[xxx][xxx][xxx][xxx][xxx][xxx]


Verse:
G|-----------------------|
D|-----------------------|
A|----5-------2-2--------|
E|--------5---------2----|


Chorus:
G|--------------------------|
D|--------------------------|
A|----5----------2----------|
E|--------5-5--------2-2----|



I'm not sure about the solo but you can play the following:

G|--------7-----------------------4--------------------|
D|------7---7---------7---------4---4---------4--------|
A|----5-------5-----7---7-----2-------2-----4---4------|
E|----------------5-------5---------------2-------2----|
            
Submit corrections

comments powered by Disqus
↑ Back to top | 7 Seconds Bass for Bully. Lyrics for acoustic guitar and electric guitar. 1 Tablatures and chords are parodies/interpretations of the original songs. You may use it for private study, scholarship, research or language learning purposes only