» » »

7 Mary 3, Cumbersome Tabs (ver.1)

Artists:  A B C D E F G H I J K L M N O P Q R S T U V W X Y Z # 

Cumbersome Tabs (ver.1)

7 Mary 3 Tabs
 Rating:
4/5 (4 votes)
Cumbersome lessons Tabs too difficult? Try these video lessons and learn fast
1
                Cumbersome
=0D
This TAB transcription was created using TAB MASTER version 1.0
=0D
Okay I didn't bother with the guitar fluff during the interlude,
so if you want it that bad, figure it out yourself (I may do it
if I get enough requests...)
=0D

   intro + verse                   "I have become..."
e:-2----0-0-------------2-------||-2-2-----5-5-----0-0-----0/2---||
B:-2----0-0------4------2-------||-2---2---5---5---0---0---0/2---||
G:-3------1------4------3-------||-3-----3-6-----6-1-----1-1/3---||
D:-4------2------4------4-------||-4-------7-------2-------2/4---||
A:-4------2------2------4-------||-4-------7-------2-------2/4---||
E:-2------0-------------2-------||-2-------5-------0-------0/2---||
=0D


=0D
   "Too heavy..."              post-chorus
e:-2----5----0---0---0/2----||-5-5---2---------0-0---2--------||
B:-2----5----0---0---0/2----||-5-5---2---------0-0---2--------||
G:-3----6----1---1---1/3----||-6-6---3---------1-1---3--------||
D:-4----7----2-------2/4----||-7-7---4---------2-2---4--------||
A:-4----7----2-------2/4----||-7-7---4---------2-2---4--------||
E:-2----5----0-------0/2----||-5-5---2---------0-0---2--------||
=0D

                                =

=0D
   fill during last chorus
e:----------------------------||
B:----------------------------||
G:----------------------------||
D:---------2h4---4--2---------||
A:-----2h4------------4-2-0---||
E:-2h4----------------------2-||
=0D
            
Submit corrections

comments powered by Disqus
↑ Back to top | 7 Mary 3 Tabs for Cumbersome. Lyrics for acoustic guitar and electric guitar. 1 Tablatures and chords are parodies/interpretations of the original songs. You may use it for private study, scholarship, research or language learning purposes only