» » »

6 Voltios, Princesa Jet Tabs (ver.1)

Artists:  A B C D E F G H I J K L M N O P Q R S T U V W X Y Z # 

Princesa Jet Tabs (ver.1)

6 Voltios Tabs
Rating:
5/5 (1 vote)
Princesa Jet lessons Tabs too difficult? Try these video lessons and learn fast
                hay ta la transcripcion hecha por my (jet)ELADIO un saludo pa los cuates
incredulos de mi don.

Intro : C5-A5-F5-----------------------------------------------------|G5
|--------------------------------------------------------------------|
|--------------------------------------------------------------------|
|--------------------------------------------------------------------|x2
|--------55---2-------55---2-------55---2------55--2-----------------|
|--3---3----5-------3----5-------3----5------3-------5---------------|
|---------------5-------------1-----------3--------------------------|

Escuchen bien el intro de la rola
 C5
e|---|
B|---|
G|-5-|
D|-5-|
A|-3-|
E|---|

 A5
e|---|
B|---|
G|---|
D|-7-|
A|-7-|
E|-5-|

  F5
e|---|
B|---|
G|---|
D|-3-|
A|-3-|
E|-1-|

  G5
e|---|
B|---|
G|---|
D|-5-|
A|-5-|
E|-3-|

  E5
e|---|
B|---|
G|---|
D|-2-|
A|-2-|
E|-0-|

versos

C5               G5                  A5
Espero que esta vez no la vuelva a cagar
       F5
(Como siempre lo he hecho)
C5               G5           A5         F5
Espero que esta vez me vaya bien en el amor
C5              G5              A5
En verdad la he visto solo una vez,
         F5
(Ella es una princesa)
C5            G5             A5              F5
Hablamos dos horas y cuatro más por el teléfono.

F5                  G5
De repente ella es para mi
             E5                 F5
no quiero quedarme como siempre solo (solo otra vez noooooooooo)
F5             G5
lo mejor será inventar
                E5                       F5              G5
hay mucho por perder pero hay mucho por ganar y quiero ganar


*Otra vez el intro pero solo una vez

C5               G5                   A5    F5
No la quiero cansar ni quiero que me canse
C5               G5            A5                F5
pero desde hace tiempo no conocía alguien como ella
C5           G5            A5
solo quiero verla una vez mas
                F5
(quiero hacerlo todos los días)
C5              G5                A5              F5
ella es una princesa y yo quiero ser su príncipe azul


F5                 G5               E5                 F5
De repente te va gustar de repente no, no quiero ilusionarme
(para después llorar)
F5             G5                          E5
lo mejor será inventar no hay mucho por perder
                    F5             G5
pero hay mucho por ganar y quiero ganar

Con p.m. (pal mute)

          C5             A5                     F5                      G5
e|--------------------------------------------------------------------|
B|--------------------------------------------------------------------|
G|-55-555-555-5-------------------------------------------------------|
D|-55-555-555-5-3-2-77-777-777-7-3-2-33-333-333-3-3-2-55-555-555-5-2--|
A|-33-333-333-3-----77-777-777-7-----33-333-333-3-----55-555-555-5---5|
E|------------------55-555-555-5-----11-111-111-1-----33-333-333-3----|
Pm  .. ... ... .    .. ... ... .     .. ... ... .     .. ... ... .


Dos veces no mas que en la segunda no se toca la ultima partecita.

C5   A5      F5
Para Barbara
     G5                C5
para ella es esta cancion
C5   A5      F5
Para Barbara
     G5                C5
para ella es esta cancion


   C5     A5          F5        G5
e|-----------------------------|
B|-----------------------------|
G|-5~--------------------------|
D|-5~-3-2-7~-3-2--3~-3-2-5~-2--|
A|-3~-----7~------3~-----5~---5|
E|--------5~------1~-----3~----|


e|--------3----------3----------3----------1------------|
B|-1--1/3---3-5----3---3-5----3---3-5----3---5-3-1------|
G|--------------2---------------------------------------| X 2
D|-------------------------3----------5-----------------|
A|------------------------------------------------------|
E|------------------------------------------------------|


C5            G5               A5           F5
Creo que su viejo me quiere matar no le gustan los borrachos

Al final de la estrofa cuando hace el cambio a F5 la 2da. Lira toca esto.

e|-------------------|
B|-------------------|
G|--1010--10-9-7-5---|
D|--x-x---x--x-x-x--—|
A|--8-8---8--7-5-3---|
E|-------------------|

C5       G5             A5                 F5
Y no suena difícil pero hasta dentro te voy a rendir
C5           G5                A5                  F5
recuerdo esa vez que la pude besar en la cual pude tocar el cielo

e|-------------------|
B|-------------------|
G|--1010--10-9-7-5---|
D|--x-x---x--x-x-x--—|
A|--8-8---8--7-5-3---|
E|-------------------|
 C5              G5                A5              F5
ella es una princesa y yo quiero ser su príncipe azul

e|-------------------|
B|-------------------|
G|--1010--10-9-7-10--|
D|--x-x---x--x-x-x--—|
A|--8-8---8--7-5-8---|
E|-------------------|

Bueno aquí también la segunda lira hace algo similar a lo anterior pero pues eso no lo 
a dar pues por que no tiene chiste dar toda la trascripción. Ustedes traten de sacarlo.

F5                               G5
si es que hay que pelear por ella lo hare
                  E5                 F5
se que valdrá la pena no soy ningún idiota(por ella no lo seré)
F5                    G5
Ahora se que ella es para mi
           E5                         F5                G5
aunque no fume, no chupe y no seamos iguales, por mi princesa esperaré.


C5   A5      F5
Para Barbara
     G5                C5
para ella es esta cancion
C5   A5      F5
Para Barbara
     G5                C5
para ella es esta cancion


Final: C5 .........  bueno hay les queda de tarea.
            
Submit corrections

comments powered by Disqus
↑ Back to top | 6 Voltios Tabs for Princesa Jet. Lyrics for acoustic guitar and electric guitar. Tablatures and chords are parodies/interpretations of the original songs. You may use it for private study, scholarship, research or language learning purposes only