» » »

6 Voltios, Chavo Tabs (ver.1)

Artists:  A B C D E F G H I J K L M N O P Q R S T U V W X Y Z # 

Chavo Tabs (ver.1)

6 Voltios Tabs
 Rating:
4/5 (4 votes)
Chavo lessons Tabs too difficult? Try these video lessons and learn fast
                                              Chavo – 6 voltios


Intro:

|-----------------9-8-6------------------|
|--9-6-6-6--9-6-6-------9-7-6-6-6-6-7/9--|
|----------------------------------------|
|----------------------------------------|
|----------------------------------------|
|----------------------------------------|

|-----------------9-8-6-------8-9--|
|--9-6-6-6--9-6-6-------9-7-6------|
|----------------------------------|
|----------------------------------|
|----------------------------------|
|----------------------------------|

Verso:

|-----------------------|    
|-----------------------|   
|--6-----------------6--|   Toda la canción es básicamente
|--6-----6-----4-----6--|   estos acordes.
|--4-----6-----4-----4--|
|--------4-----2--------|
   |     |     |     |
  C#5   G#5   B#5   C#5

Letra:

                  C#5
Ay que linda vecindad (vecindad) -----------------\
                    G#5                           |
Es la vecindad del chavo (chavo)                  |
                   B#5                            | Verso 1
No valdra medio centavo (no vale ni mierda)       |
                   C#5                            |
Pro es linda de verdad (de verdad) ---------------/
        C#5     G#5    B#5                               
Don ramoooooooooooon y pagale la renta a ese gordo maricon.  \
C#5                              G#5   B#5                   |
Gordo panzon deja en paz a don ramon y anda a empujarte una  | Verso 2
           C#5                                               |
torta de jamon.                                              /

Orden:

- Intro
- Verso 1
- Verso 2
- verso 1
- Verso 2 (sin letra)
- Verso 1
- Intro
- Verso 2 (sin letra)
            
Submit corrections

comments powered by Disqus
↑ Back to top | 6 Voltios Tabs for Chavo. Lyrics for acoustic guitar and electric guitar. Tablatures and chords are parodies/interpretations of the original songs. You may use it for private study, scholarship, research or language learning purposes only