» » »

50 Cent, P.I.M.P Tabs (ver.2)

Artists:  A B C D E F G H I J K L M N O P Q R S T U V W X Y Z # 

P.I.M.P Tabs (ver.2)

50 Cent Tabs
4/5 (4 votes)
P.I.M.P lessons Tabs too difficult? Try these video lessons and learn fast
                     E   G / G  G#   F  F#
e: |-0-|-3-|-3-|-4-|-1-|-2-|
B: |-0-|-0-|-3-|-4-|-1-|-2-|
G: |-1-|-0-|-4-|-5-|-2-|-3-|
D: |-2-|-0-|-5-|-6-|-3-|-4-|
A: |-2-|-2-|-5-|-6-|-3-|-4-|
E: |-0-|-3-|-3-|-4-|-1-|-2-|

E            G                    E
I don't know what you heard about me
E           G                  E     F
But a b**ch can't get a dollar outta me
F        G#                F     G
No Cadillac, no perms, you can't see
F          G#            G   F#  F   E
That I'm a motherf**kin' P - I - M - P

e: |0-0-0-3-3-3-3-0--|0-0-0-3-3-3-3-0-0-2|
B: |----------------0|-------------------|
G: |-----------------|-------------------|
D: |-----------------|-------------------|
A: |-----------------|-------------------|
E: |-----------------|-------------------|

e: |2-2-2-5-5-5-5-2-(4)|2-2-2-5-5-5-5-4-3-2-0|
B: |-----------------4-|---------------------|
G: |-------------------|---------------------|
D: |-------------------|---------------------|
A: |-------------------|---------------------|
E: |-------------------|---------------------|

Now shorty, she in the club, she dancin' for dollars
She got a thing for that Gucci, that Fendi, that Prada
That BCBG, Burberry, Dolce & Gabbana
She's feeding fools fantasies, they pay her cause they want her
I spit a little G man and my game got her
A hour later have that ass up in the Ramada
Them trick niggaz in they ear sayin' they think about her
I got the b**ch by the bar tryin' to get a drink up out her
She like my style, she like my smile, she like the way I talk
She from the country, she like me cause I'm from New York
I ain't that nigga trying to holla cause I want some head
I'm that nigga tryin' to holla cause I want some bread
I could care less how she perform when she in the bed
b**ch hit the track, catch a date, and come pay the kid
Look baby, this is simple you can't see
You f**kin' with me you f**kin' with a P-I-M-P
Submit corrections

comments powered by Disqus
↑ Back to top | 50 Cent Tabs for P.I.M.P. Lyrics for acoustic guitar and electric guitar. Tablatures and chords are parodies/interpretations of the original songs. You may use it for private study, scholarship, research or language learning purposes only