» » »

Get Up Tabs (ver.1)

Artists:  A B C D E F G H I J K L M N O P Q R S T U V W X Y Z # 

Get Up Tabs (ver.1)

50 Cent
Rating:
0/5 (0 votes)

Hard to play? Try these video lessons and learn fast.
                You play this riff through the whole song
Now ain't that simple

Enjoy;)

e|--------------------|--------------------|
B|--------------------|--------------------|
G|--------------------|--------------------| 
D|--------------------|--------------------|  x3
A|---4--4---4-4--6-7--|---4--4---4-4--2-4--|
E|---2--2---2-2--4-5--|---2--2---2-2--0-2--|

e|-------------------|---------------------|
B|-------------------|---------------------|
G|-------------------|---------------------|
D|-------------------|---------------------|
A|--4--4---4-4--6-7--|--9------------------|
E|--2--2---2-2--4-5--|--7------------------|
                        ^Let this ring
            
Hard to play? Try these video lessons and learn fast. | Correct




comments powered by Disqus
↑ Back to top | Tablatures and chords are parodies/interpretations of the original songs. You may use it for private study, scholarship, research or language learning purposes only