>
 >
Wither Away

Wither Away Guitar Tabs

40 Below Summer - Wither Away chords, tabs, tablatures, lyrics

Guitar lessons | Add/correct | Request | Top 50 tabs Artists:  A B C D E F G H I J K L M N O P Q R S T U V W X Y Z 0-9

Wither Away Guitar Tabs – 40 Below Summer

CD, Sheet music, Poster

Do you like Wither Away? Share with your friends now
Tabs
Band: 40 Below Summer  
Tuning: E-A-D-G-B-E 


play this clean: 
E---2------222----3---00000 
B---2------222----3---00000 
G--44-4--4-444----4---11111 
D--44-4--4-444--5-5---22222 
A--22-2--2-222--5-5---00000 
E--22-2--2-222--3-3-0-00000 
                * * 

then add distortion:
E--------------------------- 
B--------------------------- 
G--4--4---9/8--------------- 
D--4--4---x-x--5-5-5---7-7-7 
A--2--2---7/6--5-5-5---7-7-7 
E--2--2-x------3-3-3-0-5-5-5 

E------------------------------ 
B------------------------------ 
G--4--4---9/8\11--------------- 
D--4--4---x-x-----5-5-5---7-7-7 
A--2--2---7/6\-9--5-5-5---7-7-7 
E--2--2-x---------3-3-3-0-5-5-5 

E--------------------------- 
B--------------------------- 
G--4--4---9/8--------------- 
D--4--4---x-x--5-5-5---7-7-7 
A--2--2---7/6--5-5-5---7-7-7 
E--2--2-x------3-3-3-0-5-5-5 

E------------------------------ 
B------------------------------ 
G--4--4---9/8\11-12-11-9-8----- 
D--4--4---x-x-----x--x-x-x----- 
A--2--2---7/6\-9-10--9-7-6----- 
E--2--2-x---------------------- 

verse: 
E-----------------------------
B-------12-------------------- 
G----------11--12p11h12p11---- 
D--9-9---------------------12- 
A-----------------------------
E-----------------------------

E--------------------------------------------
B-------12-----------------------------12---- 
G----------11--12p11h12p11-14p12h14p12------- 
D--9-9------------------------------------10- 
A--------------------------------------------
E--------------------------------------------

pre-chorus: 

E-------
B-------
G--44-44 
D--44-44 
A--22-22 
E------- 
|------P.M| 

chorus:
E--------------------------- 
B--------------------------- 
G--4--4-4-4--------------- 
D--4--4-4-4------5-5-5---7-7-7 
A--2--2-2-2------5-5-5---7-7-7 
E--2--2-2-2------3-3-3-0-5-5-5 

Guitar 2 enters in with the octaves while guitar 1 does the suspended chords,
but you can just play the beggining over for the 2nd part of the chorus: 

E--------------------------- 
B--------------------------- 
G--4--4---9/8--------------- 
D--4--4---x-x--5-5-5---7-7-7 
A--2--2---7/6--5-5-5---7-7-7 
E--2--2-x------3-3-3-0-5-5-5 

Goto Verse, then chorus, then the screaming part goes: 
E-----------------
B-----------------
G-----------------
D-----------------
A--3-2-3-2-3-2-3-2 
E--3-2-3-2-3-2-3-2 
-----------------P.M 

Go back to acoustic part, then to verse to finish up.





Comments


Popular 40 Below Summer tabs & chords
Power Tool Bass Tabs
Alienation Tabs
Disease Tabs
Drown Tabs
Endorphins Tabs
F.E. Tabs
Still Life 2 Tabs
Taxicab Confession Tabs
Untied Tabs
We The People 2 Tabs


Song lyrics



↑ Back to top | Tablatures and chords are parodies/interpretations of the original songs. You may use it for private study, scholarship, research or language learning purposes only
© 2014 AZChords.com Contact us | Privacy policy | DMCA | Add/correct tabs | Request tabs | Top 50 tabs