» » »

Still Life Tabs (ver.2)

Artists:  A B C D E F G H I J K L M N O P Q R S T U V W X Y Z # 

Still Life Tabs (ver.2)

40 Below Summer
Rating:
0/5 (0 votes)

Hard to play? Try these video lessons and learn fast.
                
Intro (play the second 4, 4, 2's 
more than the first)

C# |---------------------------------------------
G# |---------------------------------------------
E  |--4-4-4-4-4-4-4-4-4-4-4--7-------------------
B  |--4-4-4-4-4-4-4-4-4-4-4--7--5-0--------------
F# |--2-2-2-2-2-2-2-2-2-2-2--5--5-0--------------
B  |----------------------------5-0--------------

Verse

C# |----------------------------------------------------
G# |----------------------------------------------------
E  |----------------------------------------------------
B  |--2-2-2-2-2-2-2-2--3--2-2-2-2-2-2-2-2--3------------
F# |--2-2-2-2-2-2-2-2--3--2-2-2-2-2-2-2-2--3------------
B  |--2-2-2-2-2-2-2-2--3--2-2-2-2-2-2-2-2--3--2-3-------

Chorus

C# |-------------------------------------------------
G# |-------------------------------------------------
E  |-------------------------------------------------
B  |--5-5-5-5--4-4-4-4-4-4-4-4-----------------------
F# |--5-5-5-5--4-4-4-4-4-4-4-4-----------------------
B  |--5-5-5-5--4-4-4-4-4-4-4-4--3-3-2-2--3-3-2-2-----

Bridge/Outro

C# |--------------------------------
G# |--------------------------------
E  |--------------------------------
B  |--0-1-0-2-0-1-0--4/5------------
F# |--0-1-0-2-0-1-0--4/5------------
B  |--0-1-0-2-0-1-0--4/5------------
            
Hard to play? Try these video lessons and learn fast. | Correct




comments powered by Disqus
↑ Back to top | Tablatures and chords are parodies/interpretations of the original songs. You may use it for private study, scholarship, research or language learning purposes only