» » »

40 Below Summer, Smile Electric Tabs (ver.2)

Artists:  A B C D E F G H I J K L M N O P Q R S T U V W X Y Z # 

Smile Electric Tabs (ver.2)

40 Below Summer Tabs
 Rating:
4/5 (4 votes)
Smile Electric lessons Tabs too difficult? Try these video lessons and learn fast
1
                Tuning: Drop B (B,F#,B,E,G#,C#)

. = palm mute (a lot of it in this song)
/ \ = slide

intro
---------------------------------|--------------------------------------------
---------------------------------|--------------------------------------------
---------------------------------|--4-----------------------------------------
--0-0-0-0-0-0-0-0-0-0-0-0-0------|--3-----------------------------------------
--0-0-0-0-0-0-0-0-0-0-0-0-0------|--2-----------------------------------------
--0-0-0-0-0-0-0-0-0-0-0-0-0------|--------------------------------------------
  . . . . . . . . . . . . .                                                                

verse:
-----------------4------------------4-----------------------------------------
-2-2-2--2-2-2-2--3--2-2-2--2-2-2-2--3-----------------------------------------
-2-2-2--2-2-2-2--2--2-2-2--2-2-2-2--2-----------------------------------------
-2-2-2--2-2-2-2-----2-2-2--2-2-2-2--------------------------------------------
 . . .  . . . .     . . .  . . . .           
 
prechorus:                                              
-2-3-0-2--2-3-0-2--2-3-0-2----------------------------------------------------
-2-3-0-2--2-3-0-2--2-3-0-2----------------------------------------------------
-2-3-0-2--2-3-0-2--2-3-0-2----------------------------------------------------
 . . . .  . . . .  . . . .                                                                


chorus:
-7--2--3---2--3--2--3-----7----2---3---2-3-0----------------------------------
-7--2--3---2--3--2--3-----7----2---3---2-3-0----------------------------------
-7--2--3---2--3--2--3-----7----2---3---2-3-0----------------------------------
                                                                              

1:50
-2-3-0-2/4\2--2-2-2--2/4\2----------------------------------------------------
-2-3-0-2/4\2--2-2-2--2/4\2----------------------------------------------------
-2-3-0-2/4\2--2-2-2--2/4\2----------------------------------------------------
              . . .
            
Submit corrections

comments powered by Disqus
↑ Back to top | 40 Below Summer Tabs for Smile Electric. Lyrics for acoustic guitar and electric guitar. 1 Tablatures and chords are parodies/interpretations of the original songs. You may use it for private study, scholarship, research or language learning purposes only