» » »

Power Tool Tabs (ver.1)

Artists:  A B C D E F G H I J K L M N O P Q R S T U V W X Y Z # 

Power Tool Tabs (ver.1)

40 Below Summer
Rating:
1/5 (1 vote)

Hard to play? Try these video lessons and learn fast.
                

Tuning: Drop B (B,F#,B,E,G#,C#)

H = hammer-on
<> = harmonic
. = palm mute


intro/verse: (clean)... half of this is probably bass, but I tabbed out how I play it on guitar
--------------------------------------------<19>---------------------------------|
------------------------------------------------<19>-----------------------------|
---2-2---------------------2-2---------------------<19>--------------------------|
---------------------------------------------------------------------------------|
-0-----------------------0-------------------------------------------------------|
--------3-0-3h5-5-4---0---------3-0-3p2-0----------------------------------------|


second part of intro/verse:
-----------------------------------------<19>------------------------------------|
--------------------------------------------<19>---------------------------------|
-----------14---14-19--------------------------<19>------------------------------|
-14-14-14-------------17--17-14-14-14-13-----------------------------------------|
---------------------------------------------------------------------------------|
---------------------------------------------------------------------------------|

chorus:
------------------------------------------------------------------------------|
------------------------------------------------------------------------------|
------------------------------------------------------------------------------|
-7-7-7--3-0-3h5-5-4---7-7-7--3--0-3-2-0---------------------------------------|
-7-7-7--3-0-3h5-5-4---7-7-7--3--0-3-2-0---------------------------------------|
-7-7-7--3-0-3h5-5-4---7-7-7--3--0-3-2-0---------------------------------------|
                                  . . .

2:03
------------------------------------------------------------------------------|
------------------------------------------------------------------------------|
------------------------------4-5---------------------------------------------|
-2-0-0-0-2-0-0-0-2-0-0-0-0-0--4-5---------------------------------------------|
-2-0-0-0-2-0-0-0-2-0-0-0-0-0--2-3---------------------------------------------|
-2-0-0-0-2-0-0-0-2-0-0-0-0-0--------------------------------------------------|
 . . . . . . . . . . . . . .


I threw it all away..:
------------------------------------------------------------------------------|
------------------------------------------------------------------------------|
------------------------------------------------------------------------------|
-7-7-7-3---7-7-7-3------------------------------------------------------------|
-7-7-7-3---7-7-7-3------------------------------------------------------------|
-7-7-7-3---7-7-7-3------------------------------------------------------------|
            
Hard to play? Try these video lessons and learn fast. | Correct




comments powered by Disqus
↑ Back to top | Tablatures and chords are parodies/interpretations of the original songs. You may use it for private study, scholarship, research or language learning purposes only