» » »

Power Tool Bass tabs (ver.1)

Artists:  A B C D E F G H I J K L M N O P Q R S T U V W X Y Z # 

Power Tool Bass tabs (ver.1)

40 Below Summer
Rating:
1/5 (1 vote)

Hard to play? Try these video lessons and learn fast.
                intro/verse/chorus
G--------------------------------
D--------------------------------
A-2-----4h5------------2---------
E---2-------4--4-4h5-6----2--320-

bridge type part
G------------
D------------
A--2---------
E------2-----

heavy part
G-------------------------
D-------------------------
A---------------33333-----
E-1000010001000-----------
            
Hard to play? Try these video lessons and learn fast. | Correct




comments powered by Disqus
↑ Back to top | Tablatures and chords are parodies/interpretations of the original songs. You may use it for private study, scholarship, research or language learning purposes only