>
 >
Paranoid

Paranoid Bass Tabs

3rd Strike - Paranoid chords, tabs, tablatures, lyrics

Guitar lessons | Add/correct | Request | Top 50 tabs Artists:  A B C D E F G H I J K L M N O P Q R S T U V W X Y Z 0-9

Paranoid Bass Tabs – 3rd Strike

CD, Sheet music, Poster

Do you like Paranoid? Share with your friends now
Bass TabsTabs
3rd strike - paranoid

5 stringed bass
G D A E B

intro

|---------|
|---------|
|---------|
|-00-00-0-|
|---------|

verso

|------------------------------------|
|------------------------------------|
|------------------5h7---------------|
|---------------5h7-----------3------|
|-55555555555555-------333333---3--5-|

break 

|--------------------------|
|--------------------------|
|--------------------------|
|----31--53--7-------------|
|-5----1---3--553553553553-|

break 2

|---------------------------|
|--------7------5-----------|
|---5h6h7--3h4h5------------|
|---------------------------|
|-5---------------3---5---3-|

break 3

|---------------------------------|
|-----------------------------0h2-|
|-------------5h7----------0h2----|
|----------5h7--------------------|
|-553553553-------331331331-------|

|------------------------------|
|------------------------------|
|-------------5h7--------------|
|----------5h7-----------3-----|
|-553553553-------331331--3--5-|

middle

|-------------|
|-------------|
|-------------|
|-------------|
|-55355355355-|

fin

|-----------------|
|-----------------|
|-------------5h7-|
|----------5h7----|
|-553553553-------|

gracias a mis amigos alvaro astorizaga y manuel maraņon por colaborar con sus ideas...

este tab a sido sacado lo mejor posible para tocar bien...


doky 2005





Comments


Popular 3rd Strike tabs & chords
No Light Ver Bass Tabs
No Light Tabs
No Light 1 Tabs
No Light 2 Tabs
Paranoid Tabs
Redemption Tabs


Song lyrics



↑ Back to top | Tablatures and chords are parodies/interpretations of the original songs. You may use it for private study, scholarship, research or language learning purposes only
© 2014 AZChords.com Contact us | Privacy policy | DMCA | Add/correct tabs | Request tabs | Top 50 tabs