>
 >
Paranoid

Paranoid Guitar Tabs

3rd Strike - Paranoid chords, tabs, tablatures, lyrics

Guitar lessons | Add/correct | Request | Top 50 tabs Artists:  A B C D E F G H I J K L M N O P Q R S T U V W X Y Z 0-9

Paranoid Guitar Tabs – 3rd Strike

CD, Sheet music, Poster

Do you like Paranoid? Share with your friends now
Bass TabsTabs
Tuning:

|D|
|A|
|F|
|C|
|G|
|C|

Guitar I
x4
|--------------------------------------|
|--------------------------------------|
|----------------------9h11------9h11--|
|--9h11-9h11-9h11-9h11------9h11-------|
|--9----9----9-------------------------|
|--------------------------------------|

Guitar II

x2
|--------------------------------------|
|--------------------------------------|
|--------------------------------------|
|---4-4--4-4--4------------------------|
|---4-4--4-4--4------------------------|
|---4-4--4-4--4------------------------|

x2
|---------------------------------------|
|---------------------------------------|
|---------------------------------------|
|---4-4-4-4-4-4-4-4--2-2-2-2--72/4------|
|---4-4-4-4-4-4-4-4--2-2-2-2--72/4------|
|---4-4-4-4-4-4-4-4--2-2-2-2--72/4------|


|--------------------------------------|
|--------------------------------------|
|--------------------------------------|
|---4--0--2----4-4-0-4-4-0-4-4-0-4-4---|
|---4--0--2----4-4-0-4-4-0-4-4-0-4-4---|
|---4--0--2----4-4-0-4-4-0-4-4-0-4-4---|
pm                 .     .     .

|--------------------------------------|
|--------------------------------------|
|--------------------------------------|
|---4--0--2----4-4-0-4-4-0-4-4-0-4-----|
|---4--0--2----4-4-0-4-4-0-4-4-0-4-----|
|---4--0--2----4-4-0-4-4-0-4-4-0-4-----|
pm                 .     .     .

x2
|---------------------------------------|
|---------------------------------------|
|---------------------------------------|
|---4-4-4-4-4-4-4-4--2-2-2-2--72/4------|
|---4-4-4-4-4-4-4-4--2-2-2-2--72/4------|
|---4-4-4-4-4-4-4-4--2-2-2-2--72/4------|


x2
|--------------------------------------|
|--------------------------------------|
|---6-6-6-6-6-6-4-4-4-4-4-4------------|
|---4-4-4-4-4-4-2-2-2-2-2-2------------|
|---4-4-4-4-4-4-2-2-2-2-2-2------------|
|---4-4-4-4-4-4-2-2-2-2-2-2------------|

|-------------------------------------------------------|
|-------------------------------------------------------|
|-------------------------------------------------------|
|---4-4-0-4-4-0-4-4------2h4---2-2-0-2-2-0-2-2------2h4-|
|---4-4-0-4-4-0-4-4--2h4-------2-2-0-2-2-0-2-2--2h4-----|
|---4-4-0-4-4-0-4-4------------2-2-0-2-2-0-2-2----------|
pm      .     .                    .     .

|-------------------------------------------------------|
|-------------------------------------------------------|
|-------------------------------------------------------|
|---4-4-0-4-4-0-4-4------2h4---2-2-0-2-2-72/4-----------|
|---4-4-0-4-4-0-4-4--2h4-------2-2-0-2-2-72/4-----------|
|---4-4-0-4-4-0-4-4------------2-2-0-2-2-72/4-----------|
pm      .     .                    .

x5
|---------------------------------------|
|---------------------------------------|
|---------------------------------------|
|---4-4-4-4-4-4-4-4--2-2-2-2--72/4------|
|---4-4-4-4-4-4-4-4--2-2-2-2--72/4------|
|---4-4-4-4-4-4-4-4--2-2-2-2--72/4------|

|--------------------------------------|
|--------------------------------------|
|--------------------------------------|
|---4-4-4-4-4-4-4-4--2-2-2-2-----------|
|---4-4-4-4-4-4-4-4--2-2-2-2-----------|
|---4-4-4-4-4-4-4-4--2-2-2-2-----------|

|------------------------------------------------------|
|------------------------------------------------------|
|------------------------------------------------------|
|---4-4-0-4-4------------------------------------------|
|---4-4-0-4-4------------------------------------------|
|---4-4-0-4-4------------------------------------------|
pm      .

|------------------------------------------------------|
|------------------------------------------------------|
|------------------------------------------------------|
|---4-4-0-4-4------------------------------------------|
|---4-4-0-4-4------------------------------------------|
|---4-4-0-4-4------------------------------------------|
pm      .

|------------------------------------------------------|
|------------------------------------------------------|
|------------------------------------------------------|
|---4-4-0-4-4------------------------------------------|
|---4-4-0-4-4------------------------------------------|
|---4-4-0-4-4------------------------------------------|
pm      .

|------------------------------------------------------|
|------------------------------------------------------|
|------------------------------------------------------|
|---4-4-0-4-4-----------------4-4-0-4-4----------------|
|---4-4-0-4-4-----------------4-4-0-4-4----------------|
|---4-4-0-4-4-----------------4-4-0-4-4----------------|
pm      .                         .

|------------------------------------------------------|
|------------------------------------------------------|
|------------------------------------------------------|
|---4-4-0-4-4-----------------4-4-0-4-4----------------|
|---4-4-0-4-4-----------------4-4-0-4-4----------------|
|---4-4-0-4-4-----------------4-4-0-4-4----------------|
pm      .                         .

x2
|---------------------------------------|
|---------------------------------------|
|---------------------------------------|
|---4-4-4-4-4-4-4-4--2-2-2-2--72/4------|
|---4-4-4-4-4-4-4-4--2-2-2-2--72/4------|
|---4-4-4-4-4-4-4-4--2-2-2-2--72/4------|

|--------------------------------------|
|--------------------------------------|
|--------------------------------------|
|---4--0--2----4-4-0-4-4-0-4-4-0-4-4---|
|---4--0--2----4-4-0-4-4-0-4-4-0-4-4---|
|---4--0--2----4-4-0-4-4-0-4-4-0-4-4---|
pm                 .     .     .

|--------------------------------------|
|--------------------------------------|
|--------------------------------------|
|---4--0--2----4-4-0-4-4-0-4-4-0-4-----|
|---4--0--2----4-4-0-4-4-0-4-4-0-4-----|
|---4--0--2----4-4-0-4-4-0-4-4-0-4-----|
pm                 .     .     .

x2
|---------------------------------------|
|---------------------------------------|
|---------------------------------------|
|---4-4-4-4-4-4-4-4--2-2-2-2--72/4------|
|---4-4-4-4-4-4-4-4--2-2-2-2--72/4------|
|---4-4-4-4-4-4-4-4--2-2-2-2--72/4------|

|------------------------------------------------------|
|------------------------------------------------------|
|------------------------------------------------------|
|---4-4----0-4-4-----4-4-0-4-4-0-4-4-------------------|
|---4-4----0-4-4-----4-4-0-4-4-0-4-4-------------------|
|---4-4----0-4-4-----4-4-0-4-4-0-4-4-------------------|
pm         .             .     .
|------------------------------------------------------|
|------------------------------------------------------|
|------------------------------------------------------|
|---4-4----0-4-4-----4-4-0-4-4-0-4---------------------|
|---4-4----0-4-4-----4-4-0-4-4-0-4---------------------|
|---4-4----0-4-4-----4-4-0-4-4-0-4---------------------|
pm         .             .     .


 Ascent 2006





Comments


Popular 3rd Strike tabs & chords
No Light Ver Bass Tabs
Paranoid Bass Tabs
No Light Tabs
No Light 1 Tabs
No Light 2 Tabs
Redemption Tabs


Song lyrics



↑ Back to top | Tablatures and chords are parodies/interpretations of the original songs. You may use it for private study, scholarship, research or language learning purposes only
© 2014 AZChords.com Contact us | Privacy policy | DMCA | Add/correct tabs | Request tabs | Top 50 tabs