>
 >
Punk

Punk Guitar Tabs

3 Feet Smaller - Punk chords, tabs, tablatures, lyrics

Guitar lessons | Add/correct | Request | Top 50 tabs Artists:  A B C D E F G H I J K L M N O P Q R S T U V W X Y Z 0-9

Punk Guitar Tabs – 3 Feet Smaller

CD, Sheet music, Poster

Do you like Punk? Share with your friends now
Bass TabsTabs





Intro 1 (Guitar 1)

e|---------------------------------------------------------------------------------|x4
H|---------------------------------------------------------------------------------|
G|-------9-9-9-9-------13-13-13-13-------------------------------------------------|
D|--2-2--x-x-x-x--2-2--x--x--x--x--------------------------------------------------|
A|--2-2--7-7-7-7--2-2--11-11-11-11-------------------------------------------------|
E|--0-0-----------0-0--------------------------------------------------------------|


Intro 2 (Guitar 1)

e|---------------------------------------------------------------------------------|x2
H|---------------------------------------------------------------------------------|
G|-------------------444444444444--------------------------------------------------|
D|--2222222222222222-444444444444-5555---------------------------------------------|
A|--2222222222222222-222222222222-5555---------------------------------------------|
E|--0000000000000000--------------3333---------------------------------------------|


Intro 2 (Guitar 2)

e|---------------------------------------------------------------------------------|x2
H|---------------------------------------------------------------------------------|
G|--444444444444-12121212-11111111111111111111111-12121212-------------------------|
D|--xxxxxxxxxxxx-x-x-x-x--x-x-x-x-x-x-x-x-x-x-x-x-x-x-x-x--------------------------|
A|--222222222222-10101010-9-9-9-9-9-9-9-9-9-9-9-9-10101010-------------------------|
E|---------------------------------------------------------------------------------|


.:Verse:.
e|---------------------------------------------------------------------------------|x1
H|---------------------------------------------------------------------------------|
G|---------------------------------------------------------------------------------|
D|--222222222222-5-4--222222222222-5-4--555555-777777------------------------------|
A|--000000000000-5-4--000000000000-5-4--555555-777777------------------------------|
E|--000000000000-3-2--000000000000-3-2--333333-555555------------------------------|

PM: ------------      ------------
     
e|---------------------------------------------------------------------------------|x1
H|---------------------------------------------------------------------------------|
G|------------------------------------------------------------2-2--44444444--------|
D|--222222222222-5-4--222222222222-5-4--555555-777777-222222--2-2--44444444--------|
A|--000000000000-5-4--000000000000-5-4--555555-777777-222222--0-0--22222222--------|
E|--000000000000-3-2--000000000000-3-2--333333-555555-000000-----------------------|

PM: ------------      ------------                            


.:Chorus:.
e|---------------------------------------------------------------------------------|x2
H|---------------------------------------------------------------------------------|
G|-------------4444444444-22222-44444----------------------------------------------|
D|--2222222222-4444444444-22222-44444----------------------------------------------|
A|--2222222222-2222222222-00000-22222----------------------------------------------|
E|--0000000000---------------------------------------------------------------------|


Intro 1 (x2)

Verse

Chorus

Intro 1 (x4)

Intro 2


.:Bridge:.
e|---------------------------------------------------------------------------------|x2
H|---------------------------------------------------------------------------------|
G|-6666666666666666-----------------------------------99999999-88888888------------|
D|-6666666666666666-7777777777777777-9999999999999999-99999999-99999999------------|
A|-4444444444444444-7777777777777777-9999999999999999-77777777-66666666------------|
E|------------------5555555555555555-7777777777777777------------------------------|


Chorus (x4)

Intro 1 (x4)





Comments


Popular 3 Feet Smaller tabs & chords
Car Or Bike Chords
One Time Young Chords
Tonight Chords
Tonight 2 Chords
Let It Out Tabs
Lie Baby, Lie Tabs
One Night Stand Tabs
Adorable Ukulele
One Night Stand Ukulele
Reflection Feat Jo Ukulele


Song lyrics



↑ Back to top | Tablatures and chords are parodies/interpretations of the original songs. You may use it for private study, scholarship, research or language learning purposes only
© 2014 AZChords.com Contact us | Privacy policy | DMCA | Add/correct tabs | Request tabs | Top 50 tabs