» » »

3 Feet Smaller, Punk Bass tabs (ver.1)

Artists:  A B C D E F G H I J K L M N O P Q R S T U V W X Y Z # 

Punk Bass tabs (ver.1)

3 Feet Smaller Tabs
Rating:
5/5 (1 vote)
Punk lessons Tabs too difficult? Try these video lessons and learn fast
                Intro (start at 00:14)

G|------------------------------------|
D|------------------------------------|    x2
A|------------------222222222222------|
E|-0000000000000000--------------3333-|

Verse 1

G|---------------------------------|
D|---------------------------------|     x2
A|---------------------------------|
E|-0~~~32-0~~~32-33333333-55555555-|        

then

G|-------|
D|-------|
A|-------|
E|-0~~~~-|

Pre-Chorus

G|--------------|
D|--------------|    x1
A|--------------|
E|-55--77777777-|

Chorus 1

G|-----------------------------------------------------|
D|-----------------------------------------------------|    x1
A|-----------------------------------------------------|
E|-0-0-0-00-0000000-7-7-7-77-7777777-5-5-555-7-7777777-|

Chorus 2

G|-----------------------------------------------------|
D|-----------------------------------------------------|    x1
A|-----------------------------------4-4-444-6-6666666-|
E|-0-0-0-00-0000000-7-7-7-77-7777777-------------------|

then

G|-----------|
D|-----------|
A|-----------|
E|-0~~~~~~~~-|

Verse 2

G|---------------------------------------------------|
D|---------------------------------------------------|    x2
A|---------------------------------------------------|
E|-000000000000-32-000000000000-32-33333333-55555555-|

then 

G|------------------|
D|------------------|
A|------------------|
E|-0000000000000000-|

Pre-Chorus x1

Chorus 1 x2

Pre-Chorus (when marcus sings "we just suck, so what?")

Bridge

G|--------------|
D|--------------|  x8
A|---------9-11-|
E|-0-0-000------|
(I'm not sure about that part)

Intro x2

Bridge Continued

G|----------------------------------------------------------------------|
D|----------------------------------------------------------------------| x1
A|-4444444444444444-----------------------------------77777777-66666666-|
E|------------------5555555555555555-7777777777777777-------------------|


G|--------------------------------------------------------------------|
D|--------------------------------------------------------------------| x1
A|-4444444444444444---------------------------------------------------|
E|------------------5555555555555555-77777777777777777777777777777777-|

Pre Chorus x1

Chorus 1 x1

Chorus 2 x1

Chorus 1 x1

then do this

G|-----------------------------------------------|
D|-----------------------------------------------|    x1
A|-----------------------------------44----------|
E|-0-0-0-00-0000000-7-7-7-77-7777777----55555555-|

Bridge x4

end on 

E|-00-|


Sooo that's it.
I'm pretty sure that everything's right.

Have Fun!




 
            
Submit corrections

comments powered by Disqus
↑ Back to top | 3 Feet Smaller Bass for Punk. Lyrics for acoustic guitar and electric guitar. Tablatures and chords are parodies/interpretations of the original songs. You may use it for private study, scholarship, research or language learning purposes only