» » »

Headlights Tabs (ver.1)

Artists:  A B C D E F G H I J K L M N O P Q R S T U V W X Y Z # 

Headlights Tabs (ver.1)

3 Feet Smaller
Rating:
0/5 (0 votes)

Hard to play? Try these video lessons and learn fast.
                
Intro:
E|----------------------------|
H|----------------------------|
G|-4-4-4-4-44-----------------|  x4
D|-4-4-4-4-44-7-77777-7-77777-|
A|-2-2-2-2-22-7-77777-7-77777-|
E|------------5-55555-5-55555-|

Verse:
E|-----------------|
H|-----------------|
G|-44-5554-44-5554-|
D|-44-4444-44-4444-|  Dieser riff wird über die ganze strophe gespielt
A|-22-2222-22-2222-|
E|-----------------|

Crawl down the freeway
As fast as I can
Cars pass by
Occupants haunt me
My knees are bleeding, I'm running out
Of enervy, please heal me

Chorus:
E|-------------------------------------|
H|-------------------------------------|
G|----------44444444-66666666----------|
D|-22222222-44444444-66666666-77779999-|  x2
A|-22222222-22222222-44444444-77779999-|
E|-00000000-------------------55557777-|

Thanks a lot for ruining my life
This is all your fault
You made me crawl away from everything
This is all your fault

intro x2

Verse:

The headlights cause me skin cancer
Leace me here stranded with no cure
My head's like a wheel
Spinning around
Try to crawl faster but i keep hitting
The ground

Chorus:

Bridge:
E|-----------------|
H|-----------------|
G|-----6~~---------|  x3
D|-2~~-6~~-7~~-2~~-|
A|-2~~-4~~-7~~-2~~-|
E|-0~~-----5~~-0~~-|

E|-------------------------------------|
H|-------------------------------------|
G|----------66666666-------------------|
D|-22222222-66666666-77777777-22222222-|
A|-22222222-44444444-77777777-22222222-|
E|-00000000----------55555555-00000000-|

So there i lie
Waiting for something
I could cry
Cuz something means nothing

Outro:
E|----------------|
H|----------------|
G|-4-4-4-4-44-----|
D|-4-4-4-4-44-7~~-|
A|-2-2-2-2-22-7~~-|
E|------------5~~-|
            
Hard to play? Try these video lessons and learn fast. | Correct




comments powered by Disqus
↑ Back to top | Tablatures and chords are parodies/interpretations of the original songs. You may use it for private study, scholarship, research or language learning purposes only