» » »

3 Feet Smaller, Headlights Bass tabs (ver.1)

Artists:  A B C D E F G H I J K L M N O P Q R S T U V W X Y Z # 

Headlights Bass tabs (ver.1)

3 Feet Smaller Tabs
 Rating:
4/5 (4 votes)
Headlights lessons Tabs too difficult? Try these video lessons and learn fast
                okay, thaz a pretty easy, but great song. 

intro
G|----------------------------|
D|----------------------------| x4
A|-2-2-2-2-22-----------------|
D|------------5-55555-5-55555-|

verse
G|-------------------|         G|-----------------|
D|-------------------| x6  or  D|----5554----5554-| x6
A|-2-222222----------|         A|-22--------------|
D|----------5-555555-|         D|---------55------|

chorus
G|---------------------------------------------------------------------|
D|---------------------------------------------------------------------| x2
A|---------------------------------------------------------------------|
D|-0000000000000000-7777777777777777-9999999999999999-5555555577777777-|

then intro riff again
G|----------------------------|
D|----------------------------| x2
A|-2-2-2-2-22-----------------|
D|------------5-55555-5-55555-|

verse
G|-------------------|         G|-----------------|
D|-------------------| x4  or  D|----5554----5554-| x4
A|-2-222222----------|         A|-22--------------|
D|----------5-555555-|         D|---------55------|

chorus
G|---------------------------------------------------------------------|
D|---------------------------------------------------------------------| x2
A|---------------------------------------------------------------------|
D|-0000000000000000-7777777777777777-9999999999999999-5555555577777777-|

bridge
G|-----------------|
D|-----------------| x3
A|-----------------|
D|-0~~-9~~-5~~-0~~-|

bridge continued
G|-------------------------------------------------------|
D|-------------------------------------------------------| x2
A|-------------------------------------------------------|
D|-0-00-0-00-9999999999999999-5-55-5-55-0000000000000000-|

ending
G|-----------------|
D|-----------------| x1
A|-2-2-2-2-22------|
D|------------5~~~-|

thaz it. have fun.
            
Submit corrections

comments powered by Disqus
↑ Back to top | 3 Feet Smaller Bass for Headlights. Lyrics for acoustic guitar and electric guitar. Tablatures and chords are parodies/interpretations of the original songs. You may use it for private study, scholarship, research or language learning purposes only