>
 >
If I'd Been The One

If I'd Been The One Bass Tabs

38 Special - If I'd Been The One chords, tabs, tablatures, lyrics

Guitar lessons | Add/correct | Request | Top 50 tabs Artists:  A B C D E F G H I J K L M N O P Q R S T U V W X Y Z 0-9

If I'd Been The One Bass Tabs – 38 Special

CD, Sheet music, Poster

Do you like If I'd Been The One? Share with your friends now
Bass TabsChords
-----------------------------------------------------------------------------

            
-----------------------------------------------------------------------------

Tuning: Standard

=============================================================================

Bass



     E  E  E  E  E  E  E  E     E  E  E  E  E  E  E  E   
G||--------------------------|--------------------------|
D||--------------------------|--------------------------|
A||--------------------------|--------------------------|
E||--3--3--3--3--3--3--3--3--|--3--3--3--3--3--3--3--3--|


  E  E  E  E  E  E  E  E     E  E  E  E  E  E  E  E   
--------------------------|--------------------------|
--------------------------|--------------------------|
--------------------------|--------------------------|
--3--3--3--3--3--3--3--3--|--3--3--3--3--3--3--3--3--|


  E  E  E  E  E  E  E  E     E  E  E  E  E  E  E  E   
--------------------------|--------------------------|
--------------------------|--------------------------|
--7--7--7--7--7--7--7--7--|--7--7--7--7--7--7--7--5--|
--------------------------|--------------------------|


  E  E  E  E  E  E  E  E     E  E  E  E  E  E  E  E   
--------------------------|--------------------------|
--------------------------|--------------------------|
--3--3--3--3--3--3--3--3--|--3--3--3--3--3--2--3--5--|
--------------------------|--------------------------|


  E  E  E  E  E  E  E  E     E  E  E  E  E  E  E  E   
--------------------------|--------------------------|
--------------------------|--------------------------|
--------------------------|--------------------------|
--3--3--3--3--3--3--3--3--|--3--3--3--3--3--3--3--3--|


  E  E  E  E  E  E  E  E     E  E  E  E  E  E  E  E   
--------------------------|--------------------------|
--------------------------|--------------------------|
--------------------------|-----------------------5--|
--3--3--3--3--3--3--3--3--|--3--3--3--3--3--3--7-----|


  E  E  E  E  E  E  E  E     E  E  E  E  E  E  E  E   
--------------------------|--------------------------|
--------------------------|--------------------------|
--7--7--7--7--7--7--7--7--|--7--7--7--7--7--7--7--5--|
--------------------------|--------------------------|


  E  E  E  E  E  E  E  E     E  E  E  E  E  E  E  E   
--------------------------|--------------------------|
--------------------------|--------------------------|
--3--3--3--3--3--3--3--3--|--3--3--3--3--3--2--3--5--|
--------------------------|--------------------------|


  E  E  E  E  E  E  E  E     E  E  E  E  E  E  E  E   
--------------------------|--------------------------|
--------------------------|--------------------------|
--------------------------|--------------------------|
--3--3--3--3--3--3--3--3--|--3--3--3--3--3--3--3--3--|


  E  E  E  E  E  E  E  E     E  E  E  E  E  E  E  E   
--------------------------|--------------------------|
--------------------------|--------------------------|
--------------------------|-----------------------5--|
--3--3--3--3--3--3--3--3--|--3--3--3--3--3--3--7-----|


  E  E  E  E  E  E  E  E     E  E  E  E  E  E  E  E   
--------------------------|--------------------------|
--------------------------|--------------------------|
--7--7--7--7--7--7--7--7--|--7--7--7--7--7--7--7--5--|
--------------------------|--------------------------|


  E  E  E  E  E  E  E  E     E  E  E  E  E  Q.        E  E  E  E  E  E  E  E  

 
--------------------------|------------------------|------------------------|
--------------------------|------------------------|------------------------|
--3--3--3--3--3--3--3--3--|--3--3--3--3--3--5------|--7--7--------7--7------|
--------------------------|------------------------|-----------7-----------7|


  E  E  E  E  E  E  E  E     E  Q.     E  Q.        E  E  E  E  E  E  Q     
--------------------------|----------------------|-------------------------|
--------------------------|----------------------|-------------------------|
--7--7--------7--7-----5--|--3--3------3--3------|--5--5--5--5--5-----5----|
-----------7--------0-----|----------------------|-----------------5-------|


  E  E  E  E  E  E  E  E     E  E  E  E  E  E  E  E     E  Q.     E  Q.      
--------------------------|--------------------------|----------------------|
--------------------------|--------------------------|----------------------|
--7--7--------7--7--------|--7--7--------7--7-----5--|--3--3------3--3------|
-----------7-----------7--|-----------7--------0-----|----------------------|


  E  E  E  E  E  E  E  E     Q    Q    E  E  Q       Q    E  E  E  E  E  E   
--------------------------|-----------------------|-------------------------|
--------------------------|-------5---------------|-------------------------|
--2--2--2--0--2--0--2--0--|-----------------------|-------------------------|
--------------------------|--3---------3--3--3----|--2----2--3-----2-----5--|


  Q.     E  E  E  E  E     Q    E  Q    Q    E     Q.     E  E  E  E  E   
------------------------|-----------------------|------------------------|
------------------------|-----------------------|------------------------|
------------------------|-----------------------|------------------2-----|
--5------5--5--0--3--5--|--2----2--3----5----3--|--3------3--3--5--------|


  Q.     Q    Q    E     E  E  E  E  E  E  E  E     E  E  E  E  E  E  Q     
----------------------|--------------------------|-------------------------|
----------------------|--------------------------|-------------------------|
-------------------3--|--3--3--3--3--3--2--3--4--|--5--5--5--5--5--5--5----|
--2------3----5-------|--------------------------|-------------------------|


  W                   W                   E  E  E  E  E  E  E  E   
-------------------|-------------------|--------------------------|
-------------------|-------------------|--------------------------|
-------------------|-------------------|--3--3--3--3--3--3--3--3--|
--0----------------|--L----------------|--------------------------|


  E  E  E  E  E  E  E  E     E  E  E  E  E  E  E  E   
--------------------------|--------------------------|
--------------------------|--------------------------|
--5--5--5--5--5--2--------|--------------------------|
--------------------5--2--|--3--3--3--3--3--3--3--3--|


  E  E  E  E  E  E  E  E     E  E  E  E  E  E  E  E   
--------------------------|--------------------------|
--------------------------|--------------------------|
--------------------------|--------------------------|
--3--3--3--3--3--3--3--3--|--3--3--3--3--3--3--3--3--|


  E  E  E  E  E  E  E  E     E  E  E  E  E  E  E  E   
--------------------------|--------------------------|
--------------------------|--------------------------|
-----------------------5--|--7--7--7--7--7--7--7--7--|
--3--3--3--3--3--3--7-----|--------------------------|


  E  E  E  E  E  E  E  E     E  E  E  E  E  E  E  E   
--------------------------|--------------------------|
--------------------------|--------------------------|
--7--7--7--7--7--7--7--5--|--3--3--3--3--3--3--3--3--|
--------------------------|--------------------------|


  E  E  E  E  E  E  E  E     E  E  E  E  E  E  E  E   
--------------------------|--------------------------|
--------------------------|--------------------------|
--3--3--3--3--3--2--3--5--|--------------------------|
--------------------------|--3--3--3--3--3--3--3--3--|


  E  E  E  E  E  E  E  E     E  E  E  E  E  E  E  E   
--------------------------|--------------------------|
--------------------------|--------------------------|
--------------------------|--------------------------|
--3--3--3--3--3--3--3--3--|--3--3--3--3--3--3--3--3--|


  E  E  E  E  E  E  E  E     E  E  E  E  E  E  E  E   
--------------------------|--------------------------|
--------------------------|--------------------------|
-----------------------5--|--7--7--7--7--7--7--7--7--|
--3--3--3--3--3--3--7-----|--------------------------|


  E  E  E  E  E  E  E  E     E  E  E  E  E  E  E  E     E  E  E  E  E  Q.     

 
--------------------------|--------------------------|----------------------|
--------------------------|--------------------------|----------------------|
--7--7--7--7--7--7--7--5--|--3--3--3--3--3--3--3--3--|--3--3--3--3--3--5----|
--------------------------|--------------------------|----------------------|


  E  E  E  E  E  E  E  E     E  E  E  E  E  E  E  E     E  Q.     E  Q.      
--------------------------|--------------------------|----------------------|
--------------------------|--------------------------|----------------------|
--7--7--------7--7--------|--7--7--------7--7-----5--|--3--3------3--3------|
-----------7-----------7--|-----------7--------0-----|----------------------|


  E  E  E  E  E  E  Q       E  E  E  E  E  E  E  E     E  E  E  E  E  E  E  E 

  
-------------------------|--------------------------|-----------------------|
-------------------------|--------------------------|-----------------------|
--5--5--5--5--5-----5----|--7--7--------7--7--------|--7--7--------7--7----5|
-----------------5-------|-----------7-----------7--|-----------7--------0--|


  E  Q.     E  Q.        E  E  E  E  E  E  E  E     Q    Q    E  E  Q     
----------------------|--------------------------|-----------------------|
----------------------|--------------------------|-------5---------------|
--3--3------3--3------|--2--2--2--0--2--0--2--0--|-----------------------|
----------------------|--------------------------|--3---------3--3--3----|


  Q    E  E  E  E  E  E     Q.     E  E  E  E  E     Q    E  Q    Q    E   
-------------------------|------------------------|-----------------------|
-------------------------|------------------------|-----------------------|
-------------------------|------------------------|-----------------------|
--2----2--3-----2-----5--|--5------5--5--0--3--5--|--2----2--3----5----3--|


  Q.     E  E  E  E  E     Q.     Q    Q    E     E  E  E  E  E  E  E  E   
------------------------|----------------------|--------------------------|
------------------------|----------------------|--------------------------|
------------------2-----|-------------------3--|--3--3--3--3--3--2--3--4--|
--3------3--3--5--------|--2------3----5-------|--------------------------|


  E  E  E  E  E  E  E  E     E  E  E  E  E  E  E  E     Q    E  E  E  E  E  E 

  
--------------------------|--------------------------|----------------------|
--------2--4--2-----------|--------------------------|----------------------|
--5--5-----------5--2-----|--------------------2-----|----------------------|
-----------------------5--|--3--3--3--3--3--3-----3--|--2----2--3-----2----5|


  Q    E  E  E  E  E  E     Q    E  Q    Q    E     E  E  E  E  E  E  E  E   
-------------------------|-----------------------|--------------------------|
-------------------------|-----------------------|--------------------------|
-------------------------|-----------------------|--------------------2--5--|
--5----5--5--5--0--3--5--|--2----2--3----5----3--|--3--3--3--3--3--5--------|


  Q.     Q    Q    E     Q    E  E  E  E  E  E     E  E  E  E  E  E  E  E   
----------------------|-------------------------|--------------------------|
--4------5----7-------|-------------2-----------|--------2--4--2-----------|
-------------------3--|--3----3--3-----3--2--3--|--5--5-----------5--2-----|
----------------------|-------------------------|-----------------------5--|


  E  E  E  E  E  E  E  E     E  E  E  E  E  E  E  E   
--------------------------|--------------------------|
--------------------------|--------------------------|
--------------------------|--------------------2-----|
--3--3--3--3--3--3--3--3--|--3--3--3--3--3--3-----3--|


  E  E  E  E  E  E  E  E     E  E  E  E  E  E  E  E   
--------------------------|--------------------------|
--------------------------|--------------------2--5--|
-----------------------2--|--3--3--3--3--3--5--------|
--0--0--0--0--0--0--0-----|--------------------------|


  E  E  E  E  E  E  E  E     E  E  E  E  E  E  E  E     E  E  E  E  E  E  Q   

  
--------------------------|--------------------------|----------------------|
--------------------------|--------------------------|----------------------|
--------------------------|--------------------2-----|----------------------|
--3--3--3--3--3--3--3--3--|--3--3--3--3--3--3-----3--|--0--0--0--0--0--0--0-|


  E  E  E  E  E  E  E  E     W                   H        E  E  E  E   
--------------------------|-------------------|-----------------------|
--------------2-----------|-------------------|--------------7--5--7--|
--3--3--3--5-----5--3--2--|-------------------|-----------------------|
--------------------------|--5----------------|--L--------------------|


  W                   H        E  E  E  E     W                 
-------------------|-----------------------|-------------------|
-------------------|--------------7--5--7--|-------------------|
--5----------------|--L--------------------|-------------------|
-------------------|-----------------------|--5----------------|


  H        E  E  E  E     E  E  E  E  E  E  E  E     E  E  E  E  E  E  E  E   
-----------------------|--------------------------|-------------------------|
-----------------------|--------------------------|-----------2-------------|
--------------2-----3--|--L--3--3--3--3--2--3--4--|--5--5--5-----5--3-----2-|
--L--------5-----------|--------------------------|--------------------5----|


  E  E  E  E  E  E  E  E     Q    E  E  E  E  E  E     Q.     E  E  E  E  E   
--------------------------|-------------------------|-----------------------|
--------------------------|-------------------------|-----------------------|
--------------------------|-------------------------|-----------------------|
--3--3--3--3--3--3--3--3--|--2----2--3-----2-----5--|--5------5--5--0--3--5--

|


  Q    E  Q    Q    E     E  E  E  E  E  E  E  E     Q.     Q    Q    E   
-----------------------|--------------------------|----------------------|
-----------------------|--------------------------|--4------5----7-------|
-----------------------|--------------------2--5--|-------------------3--|
--2----2--3----5----3--|--3--3--3--3--3--5--------|----------------------|


  E  E  E  E  E  E  E  E     E  E  E  E  E  E  E  E   
--------------------------|--------------------------|
-----------------------2--|--------2--4--2-----------|
--3--3--3--3--3--3--5-----|--5--5-----------5--2-----|
--------------------------|-----------------------5--|


  E  E  E  E  E  E  E  E     Q    E  E  E  E  E  E     Q.     E  E  E  E  E   
--------------------------|-------------------------|-----------------------|
--------------------------|-------------------------|-----------------------|
--------------------------|-------------------------|-----------------------|
--3--3--3--3--3--3--3--3--|--2----2--3-----2-----5--|--5------5--5--0--3--5-|


  Q    E  Q    Q    E     E  E  E  E  E  E  E  E     Q.     Q    Q    E   
-----------------------|--------------------------|----------------------|
-----------------------|--------------------------|--4------5----7-------|
-----------------------|--------------------2--5--|-------------------3--|
--2----2--3----5----3--|--3--3--3--3--3--5--------|----------------------|


  E  E  E  E  E  E  E  E     E  E  E  E  E  E  E  E   
--------------------------|--------------------------|
-----------------------2--|--------2--4--2-----------|
--3--3--3--3--3--3--5-----|--5--5-----------5--2-----|
--------------------------|-----------------------5--|


  E  E  E  E  E  E  E  E     E  E  E  E  E  E  E  E   
--------------------------|--------------------------|
--------------------------|--------------------------|
--------------------------|--------------------------|
--3--3--3--3--3--3--3--3--|--3--3--3--3--3--5--3--2--|


  E  E  E  E  E  E  E  E     E  E  E  E  E  E  E  E   
--------------------------|--------------------------|
--------------------------|--------------------2-----|
--------------------------|--3--3--3--3--3--5-----5--|
--0--0--0--0--0--0--0--0--|--------------------------|


  E  E  E  E  E  E  E  E     E  E  E  E  E  E  E  E   
--------------------------|--------------------------|
--------------------------|--------------------------|
--------------------------|--------------------------|
--3--3--3--3--3--3--3--3--|--3--3--3--3--3--5--3--2--|


  E  E  E  E  E  E  E  E     Q    Q    E  E  E  E     E  E  E  E  E  E  E  E  

 
--------------------------|------------------------|------------------------|
--------------------------|------------2--5--2-----|------------------------|
--------------------------|--3----5-------------5--|------------------------|
--0--0--0--0--0--0--0--0--|------------------------|--3--3--3--3--3--3--3--3|


  E  E  E  E  E  E  E  E     E  E  E  E  E  E  E  E     Q    E  E  E  E  E  E 

  
--------------------------|--------------------------|----------------------|
--------------------------|--------------------------|----------------------|
--------------------------|--------------------------|--3----7--5--3--5--3-2|
--3--3--3--3--3--5--3--2--|--0--0--0--0--0--0--0--0--|----------------------|


  E  E  E  E  E  E  E  E     E  E  E  E  E  E  E  E   
--------------------------|--------------------------|
--------------------------|--------------------------|
--------------------------|--------------------------|
--3--3--3--3--3--3--3--3--|--3--3--3--3--3--5--3--2--|


  E  E  E  E  E  E  E  E     Q    E  E  E  E  E  E     E  E  E  E  E  E  E  E 

  
--------------------------|-------------------------|-----------------------|
--------------------------|-------------------------|-----------------------|
--------------------------|--3----7--5--3--5--3--2--|-----------------------|
--0--0--0--0--0--0--0--0--|-------------------------|--3--3--3--3--3--3--3-3|


  E  E  E  E  E  E  E  E     E  E  E  E  E  E  E  E   
--------------------------|--------------------------|
--------------------------|--------------------------|
--------------------------|--------------------------|
--3--3--3--3--3--5--3--2--|--0--0--0--0--0--0--0--0--|


  Q    E  E  E  E  E  E    
-------------------------||
-------------------------||
--3----7--5--3--5--3--2--||
-------------------------||




Duration Legend
---------------
W - whole
H - half
Q - quarter
E - 8th
S - 16th
T - 32nd
X - 64th
. - note dotted
|-n-|  - n-tuplets


Tablature Legend
----------------
L - tied note
x - dead note
g - grace note
(n) - ghost note
> - accentuded note
NH - natural harmonic
AH - artificial harmonic
TH - tapped harmonic
SH - semi harmonic
PH - pitch harmonic
h - hammer on
p - pull off
b - bend
br - bendRelease
pb - preBend
pbr - preBendRelease
brb - bendReleaseBend
\n/ - tremolo bar dip
\n - tremolo bar dive
-/n - tremolo bar Release up
/n\ - tremolo bar inverted dip
/n - tremolo bar return
-\n - tremolo bar Release down
S - shift slide
s - legato slide
/ -  slide into from below or out of upwards
\ -  slide into from above or out of downwards
~ - vibrato
W - wide vibrato
tr - trill
TP - tremolo picking
T - tapping
S - slap
P - pop
< - fade in
^ - brush up
v - brush down





Comments


Popular 38 Special tabs & chords
Fantasy Girl Bass Tabs
One Time For Old Times Bass Tabs
Second Chance Chords
Hold On Loosely 1 Tabs
Hold On Loosely 6 Tabs
If Id Been The One Tabs
Long Distance Affair Tabs
Teacher, Teacher Tabs
Twentieth Century Fox Tabs
Second Chance Ukulele


Song lyrics



↑ Back to top | Tablatures and chords are parodies/interpretations of the original songs. You may use it for private study, scholarship, research or language learning purposes only
© 2014 AZChords.com Contact us | Privacy policy | DMCA | Add/correct tabs | Request tabs | Top 50 tabs