>
 >
Fantasy Girl

Fantasy Girl Bass Tabs

38 Special - Fantasy Girl chords, tabs, tablatures, lyrics

Guitar lessons | Add/correct | Request | Top 50 tabs Artists:  A B C D E F G H I J K L M N O P Q R S T U V W X Y Z 0-9

Fantasy Girl Bass Tabs – 38 Special

CD, Sheet music, Poster

Do you like Fantasy Girl? Share with your friends now
Bass TabsTabsTabs v2
#------------------------------------------------------------------------------##

                      38 SPECIAL - FANTASY GIRL (Bassline)


Gtr I (E A D G) - 'Bass'

  Q=175
 3/4
  Gtr I
  H.        +H.        H.        +H.        H.        +H.
|---------|----------|---------|----------|---------|--------|
|-2-------|-(2)------|-2-------|-(2)------|---------|--------|
|---------|----------|---------|----------|-2-------|-(2)----|
|---------|----------|---------|----------|---------|--------|


  H.        +H.        H.        +H.        H.        +H.
|---------|----------|---------|----------|---------|--------|
|---------|----------|-2-------|-(2)------|-2-------|-(2)----|
|-2-------|-(2)------|---------|----------|---------|--------|
|---------|----------|---------|----------|---------|--------|


  H.        +H.        H.        +H.        H.        H.
|---------|----------|---------|----------|---------|-------|
|---------|----------|---------|----------|-2-------|-2-----|
|-2-------|-(2)------|-2-------|-(2)------|---------|-------|
|---------|----------|---------|----------|---------|-------|


  H.        H.        H.        H.        H.        H.
|---------|---------|---------|---------|---------|-------|
|-2-------|-2-------|---------|---------|---------|-------|
|---------|---------|-2-------|-2-------|-2-------|-2-----|
|---------|---------|---------|---------|---------|-------|


  H.        H.        H.        H.        H.        H.
|---------|---------|---------|---------|---------|-------|
|-2-------|-2-------|-2-------|-2-------|---------|-------|
|---------|---------|---------|---------|-2-------|-2-----|
|---------|---------|---------|---------|---------|-------|


  H.        H.        H.        H.        H.        H.
|---------|---------|---------|---------|---------|-------|
|---------|---------|---------|---------|---------|-------|
|-2-------|-2-------|-4-------|---------|-7-------|-7-----|
|---------|---------|---------|-5-------|---------|-------|


  H.        H.        H.        H.        H.        H.
|---------|---------|---------|---------|---------|-------|
|---------|---------|---------|---------|---------|-------|
|---------|---------|-2-------|-2-------|-2-------|-2-----|
|-5-------|-4-------|---------|---------|---------|-------|


  H.        H.        H.        H.        H.        H.
|---------|---------|---------|---------|---------|-------|
|-2-------|-2-------|-0-------|---------|---------|-------|
|---------|---------|---------|-0-------|-2-------|-2-----|
|---------|---------|---------|---------|---------|-------|


  Q  Q  Q    Q  Q  Q    H.        H.        H.        H.
|----------|----------|---------|---------|---------|-------|
|-------2--|----1--4--|-2-------|-2-------|-0-------|-------|
|-0--4-----|-2--------|---------|---------|---------|-4-----|
|----------|----------|---------|---------|---------|-------|


  H.        H.        H.        H.        H.        H.
|---------|---------|---------|---------|---------|-------|
|---------|---------|---------|---------|-2-------|-2-----|
|-2-------|-2-------|-2-------|-2-------|---------|-------|
|---------|---------|---------|---------|---------|-------|


  H.        H.        H.        H.        H.        H.
|---------|---------|---------|---------|---------|-------|
|-2-------|-2-------|---------|---------|---------|-------|
|---------|---------|-2-------|-2-------|-2-------|-2-----|
|---------|---------|---------|---------|---------|-------|


  H.        H.        H.        H.        H.        H.
|---------|---------|---------|---------|---------|-------|
|-2-------|-2-------|-2-------|-2-------|---------|-------|
|---------|---------|---------|---------|-2-------|-2-----|
|---------|---------|---------|---------|---------|-------|


  H.        H.        H.        H.        H.        H.
|---------|---------|---------|---------|---------|-------|
|---------|---------|---------|---------|---------|-------|
|-2-------|-2-------|-4-------|---------|-7-------|-7-----|
|---------|---------|---------|-5-------|---------|-------|


  H.        H.        H.        H.        H.        H.
|---------|---------|---------|---------|---------|-------|
|---------|---------|---------|---------|---------|-------|
|---------|---------|-2-------|-2-------|-2-------|-2-----|
|-5-------|-4-------|---------|---------|---------|-------|


  H.        H.        H.        H.        H.        H.
|---------|---------|---------|---------|---------|-------|
|-2-------|-2-------|-0-------|---------|---------|-------|
|---------|---------|---------|-0-------|-2-------|-2-----|
|---------|---------|---------|---------|---------|-------|


  Q  Q  Q    Q  Q  Q    H.        H.        H.        H.
|----------|----------|---------|---------|---------|-------|
|-------2--|----1--4--|-2-------|-2-------|-0-------|-------|
|-0--4-----|-2--------|---------|---------|---------|-4-----|
|----------|----------|---------|---------|---------|-------|


  H.        H.        H.        H.        H.        H.
|---------|---------|---------|---------|---------|-------|
|---------|---------|---------|---------|-2-------|-2-----|
|-2-------|-2-------|-2-------|-2-------|---------|-------|
|---------|---------|---------|---------|---------|-------|


  H.        H.        H.        H.        H.        H.
|---------|---------|---------|---------|---------|-------|
|-2-------|-2-------|---------|---------|---------|-------|
|---------|---------|-2-------|-2-------|-2-------|-2-----|
|---------|---------|---------|---------|---------|-------|


  H.        H.        H.        H.        H.        H.
|---------|---------|---------|---------|---------|-------|
|-2-------|-2-------|-2-------|-2-------|---------|-------|
|---------|---------|---------|---------|-2-------|-2-----|
|---------|---------|---------|---------|---------|-------|


  H.        H.        H.        H.        H.        H.
|---------|---------|---------|---------|---------|-------|
|---------|---------|---------|---------|---------|-------|
|-2-------|-2-------|-4-------|---------|-7-------|-7-----|
|---------|---------|---------|-5-------|---------|-------|


  H.        H.        H.        H.        H.        H.
|---------|---------|---------|---------|---------|-------|
|---------|---------|---------|---------|---------|-------|
|---------|---------|-2-------|-2-------|-2-------|-2-----|
|-5-------|-4-------|---------|---------|---------|-------|


  Q  E E E E   Q  E E E E   Q  E E Q    Q  E E E E   Q  E E E E   Q  E E E E
|------------|------------|-----------|------------|------------|-------------|
|-2--2-------|-2--2-------|-0--0------|------------|------------|-------------|
|------2-4-2-|------2-4-2-|-----------|-0--0-0-2-4-|-2--2-------|-2--2--------|
|------------|------------|-----------|------------|----------2-|----------2--|


  Q  Q  Q    Q  Q  Q    Q  E E E E   Q  E E E E   Q  E E Q    Q  E E E E
|----------|----------|------------|------------|-----------|-------------|
|-------2--|----1--4--|-2--2-------|-2--2-------|-0--0------|-------------|
|-0--4-----|-2--------|------2-4-2-|------2-4-2-|-----------|-0--0-0-2-4--|
|----------|----------|------------|------------|-----------|-------------|


  Q  E E E E   Q  E E Q    Q  Q  Q    Q  Q  Q    Q  E E E E   Q  E E E E
|------------|-----------|----------|----------|------------|-------------|
|------------|-----------|-------2--|----1--4--|-2--2-------|-2--2--------|
|-2--2-------|-2--2------|-0--4-----|-2--------|------2-4-2-|------2-4-2--|
|----------2-|-----------|----------|----------|------------|-------------|


  Q  E E Q    Q  E E E E   Q  E E E E   Q  E E Q    Q  Q  Q    Q  Q  Q
|-----------|------------|------------|-----------|----------|-----------|
|-0--0------|------------|------------|-----------|-------2--|----1--4---|
|-----------|-0--0-0-2-4-|-2--2-------|-2--2------|-0--4-----|-2---------|
|-----------|------------|----------2-|-----------|----------|-----------|


  Q  E E E E   Q  E E E E   Q  E E Q    Q  E E E E   Q  E E E E   Q  E E Q
|------------|------------|-----------|------------|------------|------------|
|-2--2-------|-2--2-------|-0--0------|------------|------------|------------|
|------2-4-2-|------2-4-2-|-----------|-0--0-0-2-4-|-2--2-------|-2--2-------|
|------------|------------|-----------|------------|----------2-|------------|


  Q  Q  Q    Q  Q  Q    Q  E E E E   Q  E E E E   Q  E E Q    Q  E E E E
|----------|----------|------------|------------|-----------|-------------|
|-------2--|----1--4--|-2--2-------|-2--2-------|-0--0------|-------------|
|-0--4-----|-2--------|------2-4-2-|------2-4-2-|-----------|-0--0-0-2-4--|
|----------|----------|------------|------------|-----------|-------------|


  Q  E E E E   Q  E E Q    Q  Q  Q    Q  Q  Q    Q  E E E E   Q  E E E E
|------------|-----------|----------|----------|------------|-------------|
|------------|-----------|-------2--|----1--4--|-2--2-------|-2--2--------|
|-2--2-------|-2--2------|-0--4-----|-2--------|------2-4-2-|------2-4-2--|
|----------2-|-----------|----------|----------|------------|-------------|


  Q  E E Q    Q  E E E E   Q  E E E E   Q  E E Q    Q  Q  Q    Q  Q  Q
|-----------|------------|------------|-----------|----------|-----------|
|-0--0------|------------|------------|-----------|-------2--|----1--4---|
|-----------|-0--0-0-2-4-|-2--2-------|-2--2------|-0--4-----|-2---------|
|-----------|------------|----------2-|-----------|----------|-----------|


  Q  Q  Q
|------------*|
|-2----------*|
|------------*|
|------------*|


Duration Legend
---------------
W - whole; H - half; Q - quarter; E - 8th; S - 16th; T - 32nd; X - 64th; a - acciaccatura
+ - note tied to previous; . - note dotted; .. - note double dotted
Uncapitalized letters represent notes that are staccato (1/2 duration)
Irregular groupings are notated above the duration line
Duration letters will always appear directly above the note/fret number it represents the
duration for.  Duration letters with no fret number below them represent rests.  Multi-
bar rests are notated in the form Wxn, where n is the number of bars to rest for.  Low
melody durations appear below the staff

Tablature Legend
----------------
 h   - hammer-on
 p   - pull-off
 b   - bend
 pb  - pre-bend
 r   - bend release (if no number after the r, then release immediately)
 /\  - slide into or out of (from/to "nowhere")
 s   - legato slide
 S   - shift slide
  - natural harmonic
[n]  - artificial harmonic
n(n) - tapped harmonic
 ~   - vibrato
 tr  - trill
 T   - tap
 TP  - trem. picking
 PM  - palm muting
\n/  - tremolo bar dip; n = amount to dip
 \n  - tremolo bar down
 n/  - tremolo bar up
/n\  - tremolo bar inverted dip
 =   - hold bend; also acts as connecting device for hammers/pulls
 <>  - volume swell (louder/softer)
 x   - on rhythm slash represents muted slash
 o   - on rhythm slash represents single note slash

Misc Legend
-----------
 |  - bar
||  - double bar
||o - repeat start
o|| - repeat end
*|  - double bar (ending)
 :  - bar (freetime)
 $  - Segno
 &  - Coda
Tempo markers -  = BPM(8/16=s8/s16), where s8 = swing 8ths, s16 = swing 16ths


***************************************************************************************
***************************************************************************************





Comments


Popular 38 Special tabs & chords
Back Where You Belong Bass Tabs
Back Where You Belong 1 Bass Tabs
Caught Up In You Chords
Back Where You Belong Tabs
Fantasy Girl Tabs
Hold On Loosely 6 Tabs
I Oughta Let Go Tabs
Rockin' Into The Night Tabs
Trooper With An Attitude Intro Tabs
Second Chance Ukulele


Song lyrics



↑ Back to top | Tablatures and chords are parodies/interpretations of the original songs. You may use it for private study, scholarship, research or language learning purposes only
© 2014 AZChords.com Contact us | Privacy policy | DMCA | Add/correct tabs | Request tabs | Top 50 tabs