» » »

36 Crazyfists, Elysium Tabs (ver.2)

Artists:  A B C D E F G H I J K L M N O P Q R S T U V W X Y Z # 

Elysium Tabs (ver.2)

36 Crazyfists Tabs
 Rating:
4.6/5 (10 votes)
Elysium lessons Tabs too difficult? Try these video lessons and learn fast
                36 Crazyfists - "Elysium"

Tuning: CGCFAD

Intro
------------------------------------------|------|
------------------------------------------|------|
------------------------------------------|------|
--7-5-35-3-2-3-3*-------------------------|------|
-0-----------------0------------------1*--|--0---|
-0-----------------0-12-10-8-10-8-7-8-----|--0---|
(some busy guitar stuff going on in the background too)

Verse
----------------------------------------------|
----------------------------------------------|
----------------------------------------------|
----------------------------------------------|
-0000-0000--0000-00-00-0000-0000----0000-0000-|
-0000-0000--0000-00-00-0000-0000----0000-0000-|


Rest Inside The Flames
-----------------|
-----------------|
-----------------|
-0-10-8-7-8-7----|
-0-10-8-7-----8*-|
-0-10-8-7--------|

Chorus
-----------------------------------------------|
-----------------------------------------------|
-----------------------------------------------|
-8-8-8---8-8-7-------5---3-----2---3-----------|
-8-8---8-8-----8-0-0---0---0-0---0---0-0-12-12-|
-8-8-----8-------0-0---0---0-0---0---0-0-12-12-|

Post Chorus
-----------------|
-----------------|
-----------------|
-8-7-12-10-12-10-|
-8-7-8--8--8--8--|
-8-7-8--8--8--8--|

----------------------------|
----------------------------|
----------------------------|
-8-7-12-10-12-7h8p7/5h7p5/3-|
-8-7-8--8--8----------------|
-8-7-8--8--8----------------|

Breakdown
----------------|
----------------|
----------------|
-0----3-0-3-5---|
-0----3-0-3-5---|
-0----3-0-3-5---|

-----------------------------------------------------------|
-----------------------------------------------------------|
-----------------------------------------------------------|
-3p0-0----3-5-3p0-----3-5-3p0-0---------3p0-0------3-0-3-5-|
-3p0-0----3-5-3p0-----3-5-3p0-0---------3p0-0------3-0-3-5-|
-3p0-0----3-5-3p0-----3-5-3p0-0---------3p0-0------3-0-3-5-|

------------------------------------------------------|
------------------------------------------------------|
------------------------------------------------------|
3p0-0-3p0-0-8*--5*------3p0-0-3p0-0-3-7-5---5---3h5---|
3p0-0-3p0-0----------8*-3p0-0-3p0-0-------------------|
3p0-0-3p0-0---0----0----3p0-0-3p0-0-------0---0-------|

--------------------------------------------------------|
--------------------------------------------------------|
--------------------------------------------------------|
3p0-0-3p0-0-8*--5*------3p0-0-3p0-0-3-7-5---8---5h7-8-8-|
3p0-0-3p0-0----------8*-3p0-0-3p0-0-----------------8-8-|
3p0-0-3p0-0---0----0----3p0-0-3p0-0-------0---0-----8-8-|
            
Submit corrections

comments powered by Disqus
↑ Back to top | 36 Crazyfists Tabs for Elysium. Lyrics for acoustic guitar and electric guitar. Tablatures and chords are parodies/interpretations of the original songs. You may use it for private study, scholarship, research or language learning purposes only