» » »

Ceramic Tabs (ver.2)

Artists:  A B C D E F G H I J K L M N O P Q R S T U V W X Y Z # 

Ceramic Tabs (ver.2)

36 Crazyfists
Rating:
0/5 (0 votes)

Hard to play? Try these video lessons and learn fast.
                -------------------------------------------------------------------------------
                             SONG NAME - Band Name
-------------------------------------------------------------------------------

Tuning:Drop C (Drop D then one step down)

This is SUCH a good song. And yeah, this is how you *actually* play it.

D|---------------------------------------------------------------------------|
A|---------------------------------------------------------------------------|
F|---------------------------------------------------------------------------|
C|---------------------------------------------------------------------------|
G|-3/55555-7h8p70h3----------x2----------------------------------------------|
C|---------------------------------------------------------------------------|

D|---------------------------------------------------------------------------|
A|---------------------------------------------------------------------------|
F|---------------------------------------------------------------------------|
C|-000--101010---------------------------------------------------------------|
G|-000--8-8-8--7h8p70h3------x3----------------------------------------------|
C|-000--8-8-8----------------------------------------------------------------|

D|---------------------------------------------------------------------------|
A|---------------------------------------------------------------------------|
F|-------------10/121212-----------------------------------------------------|
C|-000--101010-x-x-x-x-------------------------------------------------------|
G|-000--8-8-8--8/101010------------------------------------------------------|
C|-000--8-8-8----------------------------------------------------------------|

D|---------------------------------------------------------------------------|
A|---------------------------------------------------------------------------|
F|---------------------------------------------------------------------------|
C|---------------------------------------------------------------------------|
G|-3h5555-7h8p70h3-----------------------------------------------------------| 
C|---------------------------------------------------------------------------|
     ...

D|---------------------------------------------------------------------------|
A|---------------------------------------------------------------------------|
F|---------------------------------------------------------------------------|
C|---------------------------------------------------------------------------|
G|-7h8888-7h8p70h3-----------------------------------------------------------| 
C|---------------------------------------------------------------------------|
     ...

D|---------------------------------------------------------------------------|
A|---------------------------------------------------------------------------|
F|---------------------------------------------------------------------------|
C|---------------------------------------------------------------------------|
G|-8h10101010-7h8p70h3-------------------------------------------------------|
C|---------------------------------------------------------------------------|
      . . .

D|---------------------------------------------------------------------------|
A|---------------------------------------------------------------------------|
F|-10/121212--14/12/14-------------------------------------------------------|
C|--x-x-x-x----x--x--x-------------------------------------------------------|
G|--8/101010--12-10-12-------------------------------------------------------|
C|---------------------------------------------------------------------------|

D|---------------------------------------------------------------------------|
A|---------------------------------------------------------------------------|
F|------9-7-9------109-10----------------------------------------------------|
C|-0000-x-x-x-8888-x-x-x-----------------------------------------------------|
G|-0000-7-5-7-8888-8-7-8-----------------------------------------------------|
C|-0000-------8888-----------------------------------------------------------|

D|---------------------------------------------------------------------------|
A|---------------------------------------------------------------------------|
F|-----12-10-12--------------------------------------------------------------|
C|-5555--x--x--x-------------------------------------------------------------|
G|-5555-10--8-10-------------------------------------------------------------|
C|-5555----------------------------------------------------------------------|

D|---------------------------------------------------------------------------|
A|---------------------------------------------------------------------------|
F|------14-12-14-------------------------------------------------------------|
C|-0000--x--x--x-------------------------------------------------------------|
G|-0000-12-10-12-------------------------------------------------------------|
C|-0000----------------------------------------------------------------------|

D|---------------------------------------------------------------------------|
A|---------------------------------------------------------------------------|
F|---------------------------------------------------------------------------|
C|---------------------------------------------------------------------------|
G|-33300088877787------------x4----------------------------------------------|
C|-33300088877787------------------------------------------------------------|

D|---------------------------------------------------------------------------|
A|---------------------------------------------------------------------------|
F|---------------------------------------------------------------------------|
C|---------------------------------------------------------------------------|
G|-00-000-000-00-------------------------------------------------------------|
C|-00-000-000-00-------------------------------------------------------------|
   .. ... ... ..

D|---------------------------------------------------------------------------|
A|---------------------------------------------------------------------------|
F|---------------------------------------------------------------------------|
C|-000--101010---------------------------------------------------------------|
G|-000--8-8-8--7h8p70h3------x3----------------------------------------------|
C|-000--8-8-8----------------------------------------------------------------|

D|---------------------------------------------------------------------------|
A|---------------------------------------------------------------------------|
F|-------------10/121212-----------------------------------------------------|
C|-000--101010-x-x-x-x-------------------------------------------------------|
G|-000--8-8-8--8/101010------------------------------------------------------|
C|-000--8-8-8----------------------------------------------------------------|

D|---------------------------------------------------------------------------|
A|---------------------------------------------------------------------------|
F|---------------------------------------------------------------------------|
C|---------------------------------------------------------------------------|
G|-3h5555-7h8p70h3-----------------------------------------------------------|
C|---------------------------------------------------------------------------|
     ...

D|---------------------------------------------------------------------------|
A|---------------------------------------------------------------------------|
F|---------------------------------------------------------------------------|
C|---------------------------------------------------------------------------|
G|-7h8888-7h8p70h3-----------------------------------------------------------| 
C|---------------------------------------------------------------------------|
     ...

D|---------------------------------------------------------------------------|
A|---------------------------------------------------------------------------|
F|---------------------------------------------------------------------------|
C|---------------------------------------------------------------------------|
G|-8h10101010-7h8p70h3-------------------------------------------------------| 
C|---------------------------------------------------------------------------|
      . . .

D|---------------------------------------------------------------------------|
A|---------------------------------------------------------------------------|
F|-10/121212--14/12/14-------------------------------------------------------|
C|--x-x-x-x----x--x--x-------------------------------------------------------|
G|--8/101010--12-10-12-------------------------------------------------------| 
C|---------------------------------------------------------------------------|

D|---------------------------------------------------------------------------|
A|---------------------------------------------------------------------------|
F|------9-7-9------109-10----------------------------------------------------|
C|-0000-x-x-x-8888-x-x-x-----------------------------------------------------|
G|-0000-7-5-7-8888-8-7-8-----------------------------------------------------|
C|-0000-------8888-----------------------------------------------------------|

D|---------------------------------------------------------------------------|
A|---------------------------------------------------------------------------|
F|-----12-10-12--------------------------------------------------------------|
C|-555--x--x--x--------------------------------------------------------------|
G|-555-10--8-10--------------------------------------------------------------|
C|-555-----------------------------------------------------------------------|

D|---------------------------------------------------------------------------|
A|---------------------------------------------------------------------------|
F|------14-12-14-------------------------------------------------------------|
C|-0000--x--x--x-------------------------------------------------------------|
G|-0000-12-10-12-------------------------------------------------------------|
C|-0000----------------------------------------------------------------------|

D|---------------------------------------------------------------------------|
A|---------------------------------------------------------------------------|
F|---------------------------------------------------------------------------|
C|---------------------------------------------------------------------------|
G|-33300088877787------------x4----------------------------------------------|
C|-33300088877787------------------------------------------------------------|

D|---------------------------------------------------------------------------|
A|---------------------------------------------------------------------------|
F|---------------------------------------------------------------------------|
C|-14141415-14141415-14141415------------------------------------------------|
G|-12121212-12121212-12121212------------------------------------------------|
C|-12121212-12121212-12121212------------------------------------------------|

D|---------------------------------------------------------------------------|
A|---------------------------------------------------------------------------|
F|---------------------------------------------------------------------------|
C|-12121212-12---------------------------------------------------------------|
G|-10101010-8----------------------------------------------------------------|
C|-10101010-8----------------------------------------------------------------|

D|---------------------------------------------------------------------------|
A|---------------------------------------------------------------------------|
F|---------------------------------------------------------------------------|
C|---------------------------------------------------------------------------|
G|-00-000-000-00-------------------------------------------------------------|
C|-00-000-000-00-------------------------------------------------------------|
  .. ... ... ..

D|---------------------------------------------------------------------------|
A|---------------------------------------------------------------------------|
F|---------------------------------------------------------------------------|
C|---------------------------------------------------------------------------|
G|-12-8-17-12----------Strum These (figure out the rhythm)-------------------|
C|-12-8-17-12----------------------------------------------------------------|

(Resonance effect)

D|---------------------------------------------------------------------------|
A|---------------------------------------------------------------------------|
F|---------------------------------------------------------------------------|
C|---------------------------------------------------------------------------|
G|-33300088877787------------x4----------------------------------------------|
C|-33300088877787------------------------------------------------------------|

D|---------------------------------------------------------------------------|
A|---------------------------------------------------------------------------|
F|---------------------------------------------------------------------------|
C|-14141415-14141415-14141415------------------------------------------------|
G|-12121212-12121212-12121212------------------------------------------------|
C|-12121212-12121212-12121212------------------------------------------------|

D|---------------------------
A|---------------------------------------------------------------------------|
F|---------------------------------------------------------------------------|
C|-12121212-12---------------------------------------------------------------|
G|-10101010-8----------------------------------------------------------------|
C|-10101010-8----------------------------------------------------------------|

D|---------------------------------------------------------------------------|
A|---------------------------------------------------------------------------|
F|---------------------------------------------------------------------------|
C|---------------------------------------------------------------------------|
G|-00-000-000-033------------x3----------------------------------------------|
C|-00-000-000-033------------------------------------------------------------|
  .. ... ... .

D|---------------------------------------------------------------------------|
A|---------------------------------------------------------------------------|
F|---------------------------------------------------------------------------|
C|---------------------------------------------------------------------------|
G|-00-000-000-30-------------------------------------------------------------|
C|-00-000-000-30-------------------------------------------------------------|
  .. ... ... 

| /  slide up
| \  slide down
| h  hammer-on
| p  pull-off
| ~  vibrato
| +  harmonic
| x  Mute note
===============================================================================
            
Hard to play? Try these video lessons and learn fast. | Correct




comments powered by Disqus
↑ Back to top | Tablatures and chords are parodies/interpretations of the original songs. You may use it for private study, scholarship, research or language learning purposes only