» » »

36 Crazy Fists, Bury Me Where I Fall Bass tabs (ver.2)

Artists:  A B C D E F G H I J K L M N O P Q R S T U V W X Y Z # 

Bury Me Where I Fall Bass tabs (ver.2)

36 Crazy Fists Tabs
Rating:
0/5 (0 votes)
Bury Me Where I Fall lessons Tabs too difficult? Try these video lessons and learn fast
                36 Crazyfists
Bury Me Where I Fall
Bitterness The Star

Tuning:
 
C G C F (it sounds batter if you play the low c in c flat)
I think that’s how Mick Whitney plays it. 
 


Intro:
 
|------------------------------------------------------------
|------------------------------------------------------------
|------------------------------------------------------------
|---0h1-0-0-0--0h1-0-0------0h1-0-0-0--0h1-0-0----1----------


 
--------------------------------------------------------|
--------------------------------------------------------|
------------------------------------------------4/------|
----0h1-0-0-0--0h1-0-0------0h1-0-0-0--0h1-0-0----------|


Verse, part 1: x2

 
|--------------------------------------------------|
|--------------------------------------------------|
|--------------------------------------------------|
|----3--1------------------------3--1--------------|


Verse: part 2: x4
 
|-------------------------------------------------------------------|
|-------------------------------------------------------------------| 
|-----------------1/3-3-3--3/4-4--------------------3/4-4-4--4/3-3--|
|---3--1--0--3-----------------------3--1--0--3---------------------|


Chorus: x2

 
|-------------------------------------------------------
|-------------------------------------------------------
|-------------------------------------------------------
|---6-6-6--6--6--6-6-6-6-6---3-3—3--4-3-3--4-4-3-3------
 


 
---------------------------------------------|
---------------------------------------------|
----------3-1-1-3/4\------------4-4-4-3\-----|    
---5-5-5------------------6-6-6--------------| 

Intro: x2

Verse part 1: x2

Verse: part 2: x4

Chorus: x2   


Breakdown: x4 (don’t play the note in the bracket on the 4th bar)

|------------------------|
|------------------------|
|------------------------|
|---1p0—-1—-0-0h1-(0)----|

x2
|--------------------------------------------------------------------------|
|--------------------------------------------------------------------------|
|--------------------------------------------------------------------------|
|-1p0—-1—-0-0h1-0---1p0—-1—-0-0h1—0---1p0—-1—-0-0h1—0---1p0—-1—-0-0h1—-3-1-|


Chorus: x2

Second Breakdown:

X1
|---------------------|
|---------------------|
|---------------------|
|-0~--------------1-1-|




x2 
|-------------------------------------------------------  
|-------------------------------------------------------  
|-------------------------------------------------------
|-0h1-0-0--0-0h1-0-0--0-0~--0h1-0-0--0-0h1-0-0--0-0~----


  
----------------------------------------------------------|
----------------------------------------------------------|
----------------------------------------------------------|
-0h1-0-0--0-0h1-0-0--0-0~--0h1-0-0--0-0h1—0-0--0-3-1------|


Outro: x1

|--------------------------------------------------
|--------------------------------------------------
|--------------------------------------------------
|0h1-0-0--0-0h1-0-0-------0h1-0-0--0-0h1--0-0-0-0—-

-------------------------------------------------|
-------------------------------------------------|
-------------------------------------------------|
-0h1-0-0--0-0h1-0-0-------0h1-0-0--0-0h1--0-0—-0-|

Thankyou, please rate
            

comments powered by Disqus
↑ Back to top | 36 Crazy Fists Bass for Bury Me Where I Fall. Lyrics for acoustic guitar and electric guitar. Tablatures and chords are parodies/interpretations of the original songs. You may use it for private study, scholarship, research or language learning purposes only