>
 >
Between The Anchor And The Air

Between The Anchor And The Air Guitar Tabs

36 Crazy Fists - Between The Anchor And The Air chords, tabs, tablatures, lyrics

Guitar lessons | Add/correct | Request | Top 50 tabs Artists:  A B C D E F G H I J K L M N O P Q R S T U V W X Y Z 0-9

Between The Anchor And The Air Guitar Tabs – 36 Crazy Fists

CD, Sheet music, Poster

Do you like Between The Anchor And The Air? Share with your friends now
Tabs
		Between The Anchor And The Air - 36 Crazyfists

One or two parts I'm not 100% sure on but should be enough to get you by at
least.

Tuning:Drop C

Guitar 1, Clean
D|-------------------------------------------------------------------------|
A|-------------------------------------------------------------------------|
F|-------------------------------------------------------------------------|
C|-----10-------9--------10-------7----------------------------------------|
G|---7--------7--------7--------7------------------------------------------|
C|-7--------7--------7--------7--------------------------------------------|

Both Guitars, Distorted
D|-------------------------------------------------------------------------|
A|-------------------------------------------------------------------------|
F|-------------------------------------------------------------------------|
C|-3------7-----7-----7-----7-----5-----5-----5-----5----------------------|
G|-3----3-----3-----3-----3-----2-----2-----2-----2------------------------|
C|-3--3-----3-----3-----3-----2-----2-----2-----2--------------------------|

D|-------------------------------------------------------------------------|
A|-------------------------------------------------------------------------|
F|-------------------------------------------------------------------------|
C|-----7-----7-----7-----7-----7-----7-----7----7\5------------------------|
G|---3-----3-----5-----5-----7-----7-----7----0-7\5------------------------|
C|-3-----3-----5-----5-----7-----7-----7------0-7\5------------------------|
                                              .
Guitar 1
D|-------------------------------------------------------------------------|
A|-------------------------------------------------------------------------|
F|-17--16---14--/16--12---16--17--14--16--9---17--16-----------------------|
C|--x---x----x----x---x----x---x---x---x--x----x---x-----------------------|
G|-15--14---12--/14--10---14--15--12--14--7---15--14-----------------------|
C|-------------------------------------------------------------------------|

Guitar 2
D|-------------------------------------------------------------------------|
A|-------------------------------------------------------------------------|
F|-------------------------------------------------------------------------|
C|----------3---------2------------3---5---7---10--9-----------------------|
G|----------3---------2------------3---5---7---10--9-----------------------|
C|----------3---------2------------3---5---7---10--9-----------------------|

Guitar 1
D|-------------------------------------------------------------------------|
A|-------------------------------------------------------------------------|
F|-------------------------------------------------------------------------|
C|-------------------------------------------------------------------------|
G|-------------------------------------------------------------------------|
C|-0-0-0---0--0------------------------------------------------------------|

Both Guitars
D|-------------------------------------------------------------------------|
A|-------------------------------------------------------------------------|
F|-------------------------------------------------------------------------|
C|-------------------------------------------------------------------------|
G|-7---7---7---7----------------------7---7---7---7------------------------|
C|---3---3---3---3--0-0-0---0--0--0-----3---3---3---3--3200--320--0--------|
                                                       ....  ...  

D|-------------------------------------------------------------------------|
A|-------------------------------------------------------------------------|
F|-------------------------------------------------------------------------|
C|-------------------------------------------------------------------------|
G|---7---7---7---7----------------------7---7---7---7----2-----3-----5-----|
C|-3---3---3---3---3--0-0-0---0--0--0-----3---3---3---3----0-0---0-0-------|
                                                           . .   . .

D|--------------------------------------|----------------------------------|
A|--------------------------------------|----------------------------------|
F|---------------10------------------9--|----------------------------------|
C|----------0----x--------------0----x--|------------0-0-0-0---------------|
G|-0-0-0-0--0--0-8--0--0-0-0-0--0--0-7--|-0-8*-7*-0--0-0-0-0-(x3)----------|
C|-0-0-0-0--0--0----0--0-0-0-0--0--0----|------------0-0-0-0---------------|
   . . . .     .    .  . . . .     .              .  . . . .

D|-------------------------------------------------------------------------|
A|-------------------------------------------------------------------------|
F|---------------10------------------9-------------------------------------|
C|----------0----x--------------0----x-------------------------------------|
G|-0-0-0-0--0--0-8--0--0-0-0-0--0--0-7-------------------------------------|
C|-0-0-0-0--0--0----0--0-0-0-0--0--0---------------------------------------|
   . . . .     .    .  . . . .     .

Guitar 1
D|-------------------------------------------------------------------------|
A|-------------------------------------------------------------------------|
F|-10-9-7--12-10-9--10-9-7--12-15-14---------------------------------------|
C|-x--x-x--x--x--x--x--x-x--x--x--x--(x2)----------------------------------|
G|-8--7-5--10-8--7--8--7-5--10-13-12---------------------------------------|
C|-------------------------------------------------------------------------|

Guitar 2
D|-------------------------------------------------------------------------|
A|-------------------------------------------------------------------------|
F|-14-12-10--12-10-9--14-12-10--12-15-14-----------------------------------|
C|-x--x--x---x--x--x--x--x--x---x--x--x--(x1)--(harmony)-------------------|
G|-12-10-8---10-8--7--12-10-8---10-14-13-----------------------------------|
C|-------------------------------------------------------------------------|

Chorus
D|-------------------------------------------------------------------------|
A|-------------------------------------------------------------------------|
F|-------------------------------------------------------------------------|
C|-----7-----7-----7-----7-----5-----5-----5-----5-------------------------|
G|---3-----3-----3-----3-----2-----2-----2-----2---------------------------|
C|-3-----3-----3-----3-----2-----2-----2-----2-----------------------------|

D|-------------------------------------------------------------------------|
A|-------------------------------------------------------------------------|
F|-------------------------------------------------------------------------|
C|-----7-----7-----7-----7-----7-----7-----7----7\5------------------------|
G|---3-----3-----5-----5-----7-----7-----7----0-7\5------------------------|
C|-3-----3-----5-----5-----7-----7-----7------0-7\5------------------------|
                                              .
Guitar 1
D|-------------------------------------------------------------------------|
A|-------------------------------------------------------------------------|
F|-17--16---14--/16--12---16--17--14--16--9--------------------------------|
C|--x---x----x----x---x----x---x---x---x--x--------------------------------|
G|-15--14---12--/14--10---14--15--12--14--7--------------------------------|
C|-------------------------------------------------------------------------|

Guitar 2
D|-------------------------------------------------------------------------|
A|-------------------------------------------------------------------------|
F|-------------------------------------------------------------------------|
C|----------3---------2------------3---5---7-------------------------------|
G|----------3---------2------------3---5---7-------------------------------|
C|----------3---------2------------3---5---7-------------------------------|

Both Guitars
D|-------------------------------------------------------------------------|
A|---6---6---6---6--------6---6---6---6------------------------------------|
F|-9---9---9---9--------9---9---9---9--------------------------------------|
C|------------------0~-------------------0-0-0--0--0--0--------------------|
G|------------------0~-------------------0-0-0--0--0--0--------------------|
C|------------------0~-------------------0-0-0--0--0--0--------------------|
                    .                    . . .  .  .  .

Repeat a few times, with slight variation of palm mutes.

Guitar 1
D|-------------------------------------------------------------------------|
A|-------------------------------------------------------------------------|
F|-------------------------------------------------------------------------|
C|-10-(x16)-9-(x16)-10-(x8)-12-(x8)--7----------------------------------5--|
G|-8--------7-------8-------10-------7-(x10, slowly release palm mute)--5--|
C|-----------------------------------7----------------------------------5--|
   .        .       .        .       .

Both Guitars
D|-------------------------------------------------------------------------|
A|-------------------------------------------------------------------------|
F|-------------------------------------------------------------------------|
C|-3---------2------------3---5---7----------------------------------------|
G|-3---------2------------3---5---7----------------------------------------|
C|-3---------2------------3---5---7----------------------------------------|


Guitar 1
D|-------------------------------------------------------------------------|
A|-------------------------------------------------------------------------|
F|-17--16---14--/16--12---16--17--14--16--9---17--16-----------------------|
C|--x---x----x----x---x----x---x---x---x--x----x---x-----------------------|
G|-15--14---12--/14--10---14--15--12--14--7---15--14-----------------------|
C|-------------------------------------------------------------------------|

Guitar 2
D|-------------------------------------------------------------------------|
A|-------------------------------------------------------------------------|
F|-------------------------------------------------------------------------|
C|----------3---------2------------3---5---7---5---------------------------|
G|----------3---------2------------3---5---7---5---------------------------|
C|----------3---------2------------3---5---7---5---------------------------|

Guitar 1
D|-------------------------------------------------------------------------|
A|-------------------------------------------------------------------------|
F|-------------------------------------------------------------------------|
C|-------------------------------------------------------------------------|
G|-------------------------------------------------------------------------|
C|-0-0-0--0--0-------------------------------------------------------------|

Both Guitars
D|-------------------------------------------------------------------------|
A|-------------------------------------------------------------------------|
F|--------------------10---------------------9----------------------12-----|
C|--------------------x----------------------x----------------------x------|
G|-0-0-0--0-0---0-0-0-8---0-0-0--0-0---0-0-0-7---0-0-0--0-0---0-0-0-10-----|
C|-0-0-0--0-0---0-0-0-----0-0-0--0-0---0-0-0-----0-0-0--0-0---0-0-0--------|
   . . .  .     . . .     . . .  .     . . .     . . .  .     . . .

D|-------------------------------------------------------------------------|
A|-------------------------------------------------------------------------|
F|-------------------------------------------------------------------------|
C|-------------------------------------------------------------------------|
G|-0-0-0--0-0--------------------------------------------------------------|
C|-0-0-0--0-0----3-2-0-3-2-0-2---------------------------------------------|
   . . .  .      . . . . . . . 

D|-------------------------------------------------------------------------|
A|-------------------------------------------------------------------------|
F|-------------------------------------------------------------------------|
C|-------------------------------------------------------------------------|
G|-0-0-0--0-0---0-0-0-8*--0-0-0--0-0---0-0-0-7*--0-0-0--0-0---0-0-0-10*----|
C|-0-0-0--0-0---0-0-0-----0-0-0--0-0---0-0-0-----0-0-0--0-0---0-0-0--------|
   . . .  .     . . .     . . .  .     . . .     . . .  .     . . .

D|-------------------------------------------------------------------------|
A|-------------------------------------------------------------------------|
F|-------------------------------------------------------------------------|
C|-------------------------------------------------------------------------|
G|-0-0-0--0-0--------------------------------------------------------------|
C|-0-0-0--0-0----3-2-0-3-2-0-2---------------------------------------------|
   . . .  .      . . . . . . . 


| /  slide up
| \  slide down
| h  hammer-on
| p  pull-off
| ~  Let ring
| *  Pinch harmonic
| x  Mute string
| .  Palm mute
| b  Bend note	





Comments


Popular 36 Crazy Fists tabs & chords
Bury Me Where I Fall Bass Tabs
Bury Me Where I Fall 1 Bass Tabs
In The Skin Bass Tabs
Two Months From A Year Bass Tabs
Destroy The Map Intro Tabs
On Any Given Night Tabs
Only A Year Or So Intro Tabs
Slit Wrist Theory 2 Tabs
The City Below Tabs
The Heart & The Shape 1 Tabs


Song lyrics



↑ Back to top | Tablatures and chords are parodies/interpretations of the original songs. You may use it for private study, scholarship, research or language learning purposes only
© 2014 AZChords.com Contact us | Privacy policy | DMCA | Add/correct tabs | Request tabs | Top 50 tabs