» » »

30 Seconds To Mars, Fallen Tabs (ver.1)

Artists:  A B C D E F G H I J K L M N O P Q R S T U V W X Y Z # 

Fallen Tabs (ver.1)

30 Seconds To Mars Tabs
 Rating:
4/5 (4 votes)
Fallen lessons Tabs too difficult? Try these video lessons and learn fast
                
Tuning: Dropped C (C G C F A D)

Intro
|-------------------|
|-------------------|
|-------------------|
|-----8-7\/-10-9/12-|
|-----8-7\/-8--7/10-|
|-0-0-8-7\/---------|
  PM-|

|-------------------------------------------------------------|
|-------------------------------------------------------------|
|-------------------------------------------------------------|
|-0~---8~---0~---5~//--0~---8~------10\-12\--0~---5~--5\3-3\2-|
|-0~---8~---0~---5~//--0~---8~------10\-10\--0~---5~--5\3-3\2-|
|-0~---8~---0~---5~//--0~---8~--0-0-10\-10\--0~---5~--5\3-3\2-|
                                PM-|

1st Verse (w/ clean tone)
|-----------------------------------------------------------------|
|---------------------------------6-6-6-6-6-6-6-6-6-6-6-6-6-------|
|-2-2-2-2-2-2-2-2-2-2-2-2-2-------3-3-3-3-3-3-3-3-3-3-3-3-3-7-7-7-|
|-0-0-0-0-0-0-0-0-0-0-0-0-0-5-5-5---------------------------5-5-5-|
|---------------------------3-3-3---------------------------------|
|-----------------------------------------------------------------|x8
  PM-------------------------------------------------------------|

Fill 1 (w/ clean tone)
|--------|
|--------|
|--------|
|-5^-----|
|-----5^-|
|--------|
NOTE: This is played on the 6th time of the main verse riff.

Chorus
|-----------------------------------------------------------------|
|-----------------------------------------------------------------|
|-----------------------------------------------------------------|
|-0--10-0-0-9-0-0-12-0-0-10-7-0--10-10-10-9-9-9-12-12-12-12-12-12-|
|-0--8--0-0-7-0-0-10-0-0-10-7-0--8--8--8--7-7-7-10-10-10-10-10-10-|
|-0-----0-0---0-0----0-0-10-7-0-----------------------------------|

|-----------------------------------------------------------------|
|-----------------------------------------------------------------|
|-----------------------------------------------------------------|
|-0--10-0-0-9-0-0-12-0-0-10-7-0--10-10-10-9-9-9-10-10-10-10-10-10-|
|-0--8--0-0-7-0-0-10-0-0-10-7-0--8--8--8--7-7-7-10-10-10-10-10-10-|
|-0-----0-0---0-0----0-0-10-7-0-----------------10-10-10-10-10-10-|

|-----------------------------------------------------------------|
|-----------------------------------------------------------------|
|-----------------------------------------------------------------|
|-0--10-0-0-9-0-0-12-0-0-10-7-0--10-10-10-9-9-9-12-12-12-12-12-12-|
|-0--8--0-0-7-0-0-10-0-0-10-7-0--8--8--8--7-7-7-10-10-10-10-10-10-|
|-0-----0-0---0-0----0-0-10-7-0-----------------------------------|

Chorus Fill 1
|--------------------------------------------------------|
|--------------------------------------------------------|
|--------------------------------------------------------|
|-0--10-0-0-9-0-0-12-0-0-10-7-0--10-10--9-9--10-10-7--0~-|
|-0--8--0-0-7-0-0-10-0-0-10-7-0--8--8---7-7--10-10-7--0~-|
|-0-----0-0---0-0----0-0-10-7-0--------------10-10-7--0~-|
NOTE: 2nd Guitar starts playing verse while 1st guitar holds out
the open.

2nd Verse: play 1st verse riff 6 times w/ Guitar 2 playing this:
Guitar 2(w/ clean tone and delay effect)
|-------------------------------------|
|-------------------------------------|
|----14-15-14-12-------14-15-14-12-14-|
|-12-------------15-12----------------|
|-------------------------------------|
|-------------------------------------|

|-----------------------------------|
|-----------------------------------|
|----14-15-14-12--------------------|
|-12-------------15--12-14-15-14-10-|
|-----------------------------------|
|-----------------------------------|
Both these riffs are played twice total.

(Distortion on)
|----------------------|
|----------------------|
|----------------------|
|-0~---8~---0~---5~~//-|
|-0~---8~---0~---5~~//-|
|-0~---8~---0~---5~~//-|

|-----------------------------------------------------------------|
|-----------------------------------------------------------------|
|-----------------------------------------------------------------|
|-0-0-0-0-0-0-0-0-0-0-0-0-0-0-0-0-8-8-8-8-8-8-8-8-8-8-8-8-8-8-8-8-|
|-0-0-0-0-0-0-0-0-0-0-0-0-0-0-0-0-8-8-8-8-8-8-8-8-8-8-8-8-8-8-8-8-|
|-0-0-0-0-0-0-0-0-0-0-0-0-0-0-0-0-8-8-8-8-8-8-8-8-8-8-8-8-8-8-8-8-|
  PM-------------------------------------------------------------|

|-----------------------------------|
|-----------------------------------|
|-----------------------------------|
|-0-0-0-0-0-0-0-0-0-0-0-0-0-0-0-0-5-|
|-0-0-0-0-0-0-0-0-0-0-0-0-0-0-0-0-5-|
|-0-0-0-0-0-0-0-0-0-0-0-0-0-0-0-0-5-|
  PM---------------------|

Play Chorus the same but with 2nd fill: 
Chorus Fill 2
|---------------------------------------------------------|
|---------------------------------------------------------|
|---------------------------------------------------------|
|-0--10-0-0-9-0-0-12-0-0-10-7-0--10/12-14--15-14--10-9-10-|
|-0--8--0-0-7-0-0-10-0-0-10-7-0--10/12-14--13-12--8--7-8--|
|-0-----0-0---0-0----0-0-10-7-0--10/12-14-----------------|

Outro
NOTE: The Outro is the Chorus played with the Outro Fill at the 
end and with this background fill:
(w/ weird effect)
|-------------------------|
|-------------------------|
|-5/7-10\-5/7-12\-5/7-14\-|
|-x-x-x---x-x-x---x-x-x---|
|-3/5-8\--3/5-10\-3/5-12\-|
|-------------------------|x8

Outro Fill
|----------------------------------------------|
|----------------------------------------------|
|----------------------------------------------|
|-0--10-0-0-9-0-0-12-0-0-10-7-0--3-3-2-2-1--0~-|
|-0--8--0-0-7-0-0-10-0-0-10-7-0--3-3-2-2-1--0~-|
|-0-----0-0---0-0----0-0-10-7-0--3-3-2-2-1--0~-|

You're done!
            
Submit corrections

comments powered by Disqus
↑ Back to top | 30 Seconds To Mars Tabs for Fallen. Lyrics for acoustic guitar and electric guitar. Tablatures and chords are parodies/interpretations of the original songs. You may use it for private study, scholarship, research or language learning purposes only