» » »

Punk Rocks In Yer Head Tabs (ver.2)

Artists:  A B C D E F G H I J K L M N O P Q R S T U V W X Y Z # 

Punk Rocks In Yer Head Tabs (ver.2)

30 Foot Fall
Rating:
0/5 (0 votes)

Hard to play? Try these video lessons and learn fast.
                intro::

E---------------------
A---------------------
D---------------------
G--2---2---0---4---
B--3---5---3---7---
e--2---5---3---7---

E------5--3-----------------
A--5--7--5---5--12--10--
D--7--7--5---7--14--12--
G--7----------7--14--12--
B----------------------------
e----------------------------

verse::

E------5--3--7--
A--5--7--5--9--
D--7--7--5--9--
G--7-------------
B-----------------
e-----------------

chorus::

E------5--3---
A--5--7--5---
D--7--7--5---          on last chorus end on D
G--7----------
B--------------
e--------------

end::

E---------------------------------------------------
A---------------------------------------------------
D--0----------0------------------0----------0~--
G----2------2--2-----2---2---2--2------2------
B------3--3------3--3---3---3-----3--3--------
e--------2----------3---2---3--------2----------
            
Hard to play? Try these video lessons and learn fast. | Correct




comments powered by Disqus
↑ Back to top | Tablatures and chords are parodies/interpretations of the original songs. You may use it for private study, scholarship, research or language learning purposes only