» »

/0-9/3-tabs-21475.html

»

3, Queen Tabs (ver.1)

Artists:  A B C D E F G H I J K L M N O P Q R S T U V W X Y Z # 

Queen Tabs (ver.1)

3 Tabs
 Rating:
4/5 (6 votes)
Queen lessons Tabs too difficult? Try these video lessons and learn fast
                (Intro)
Intro: this is the lead guitar part however the acoustic
section is very similar with more hammer-ons and pull offs.

E|------------------------------|
B|------------------------------|
G|------------------------------|
D|------------------------------|
A|--2--7---9---10p9---7----6----|
E|--00---0---0------0---0-------|
    *    *   *      *   *

E|------------------------------|
B|------------------------------|
G|------------------------------|
D|------------------------------|
A|--222---7----6-----3p2--------|
E|--0000----0-----0-------3-2---|
    ** *    *     *

 Note: this was my first tab, all worked out by ear, hope it helps.
For a more precise timing you'll have to listen to the song.
            
Submit corrections

comments powered by Disqus
↑ Back to top | 3 Tabs for Queen. Lyrics for acoustic guitar and electric guitar. Tablatures and chords are parodies/interpretations of the original songs. You may use it for private study, scholarship, research or language learning purposes only