» » »

Thugz Mansion Non Accoustic Bass tabs (ver.1)

Artists:  A B C D E F G H I J K L M N O P Q R S T U V W X Y Z # 

Thugz Mansion Non Accoustic Bass tabs (ver.1)

2pac
Rating:
0/5 (0 votes)

Hard to play? Try these video lessons and learn fast.
                this is the tab for the non accoustic version of 2pac 'thugz mansion' written by tupac shakur

no bass till 0:45 then you come in with this little thing

G  :-----------------|
D  :-----------------|
A  :---3-3--6--------|
E  :-----------------|

then you repeat this for the rest of the song

G  :-----------4-------|-----------5-------|
D  :-3--3-3------------|-3--3-3------------|
A  :---------6---6-6-3-|---------3---3-3-6-|
E  :-------------------|-------------------|

listen to the song to get the timing .
            
Hard to play? Try these video lessons and learn fast. | Correct




comments powered by Disqus
↑ Back to top | Tablatures and chords are parodies/interpretations of the original songs. You may use it for private study, scholarship, research or language learning purposes only