» » »

2pac, Thugz Mansion Tabs (ver.1)

Artists:  A B C D E F G H I J K L M N O P Q R S T U V W X Y Z # 

Thugz Mansion Tabs (ver.1)

2pac Tabs
 Rating:
4/5 (4 votes)
Thugz Mansion lessons Tabs too difficult? Try these video lessons and learn fast
1
                THUGZ MANSION (ACCOUSTIC)
As recorded by 2PAC Featuring Nas
(From the 2002 Album BETTER DAYZ)



 Words by 2Pac Music by Nas

 

C
x 3 2 0 1 0 



 4/4
  Gtr I
|------------------|
|------------------|
|-5\-(3)-5\-(3)----|
|------------------|
|------------------|
|------------------|


  Q=90
|---4-x-4---4-x------3-x-3---3-x-------4-x-------4/-6-x-|
|---4-x-4---4-x------4-x-4---4-x-2---4-6-x-2---4-4/-6-x-|
|---5-x-5---5-x------5-x-5---5-x-3---5-5-x-3---5------x-|
|---6-x-6---6-x------5-x-5---5-x-------6-x------------x-|
|---------------0/-3-------3-----4-4-6-4-x-4-4-6--------|
|-4-------4---------------------------------------------|






Tablature Legend
----------------
 h   - hammer-on
 p   - pull-off
 b   - bend
 pb  - pre-bend
 r   - bend release (if no number after the r, then release immediately)
 /\  - slide into or out of (from/to "nowhere")
 s   - legato slide
 S   - shift slide
<n> - natural harmonic
[n]  - artificial harmonic
n(n) - tapped harmonic
 ~   - vibrato
 tr  - trill
 T   - tap
 TP  - trem. picking
 PM  - palm muting
\n/  - tremolo bar dip; n = amount to dip
 \n  - tremolo bar down
 n/  - tremolo bar up
/n\  - tremolo bar inverted dip
 =   - hold bend; also acts as connecting device for hammers/pulls
 <> - volume swell (louder/softer)
 x   - on rhythm slash represents muted slash
 o   - on rhythm slash represents single note slash

Misc Legend
-----------
 |  - bar
||  - double bar
||o - repeat start
o|| - repeat end
*|  - double bar (ending)
 :  - bar (freetime)
 $  - Segno
 &  - Coda
Tempo markers - <E/E./Q/Q./H/H.> = BPM(8/16=s8/s16), where s8 = swing 8ths, s16 = swing 16ths
            
Submit corrections

comments powered by Disqus
↑ Back to top | 2pac Tabs for Thugz Mansion. Lyrics for acoustic guitar and electric guitar. 1 Tablatures and chords are parodies/interpretations of the original songs. You may use it for private study, scholarship, research or language learning purposes only