» » »

2pac, Better Dayz Tabs (ver.1)

Artists:  A B C D E F G H I J K L M N O P Q R S T U V W X Y Z # 

Better Dayz Tabs (ver.1)

2pac Tabs
 Rating:
4/5 (4 votes)
Better Dayz lessons Tabs too difficult? Try these video lessons and learn fast
1
                Tupac featuring Nas Thug Mansion Acoustic - Better Dayz

Ok, the badass tattoo guy in the video has his strings tuned up a half step, and
this tab is for regular tuning.  The key is G#, which I've never really used before,
and the main progression goes I ii ii (different inversion) iii IV ii iii V.
I'd assume that this song uses two guitars, and I'll try to tab out the other guitar (the fun one), 
or at least the general methods of improvisation used.  
Until then,  I hope this helps dude, and if you know anything about music theory you can 
probably get the solo parts.  This song is jamming.


		 G#			    a#	
e|---------------4--X--4--X--4--X--4--X-----6--X--6--X--6--X--6--X
b|---------------4--X--4--X--4--X--4--X-----6--X--6--X--6--X--6--X
g|3/5-3/5--------5--X--5--X--5--X--5--X-----6--X--6--X--6--X--6--X
d|---------------6--X--6--X--6--X--6--X-----8--X--8--X--8--X--8--X
a|----------------------------------------------------------------
e|------------4---------------------------------------------------

       a#   b#   C#       a#   b#   D#
e|---------------------------------/6-----------------------------
b|-----3----4---/6--------3----4---/8-----------------------------
g|-----1----3---/4--------1----3---/6-----------------------------
d|-----2----5---/6--------2----5---/8-----------------------------
a|----------------------------------------------------------------
e|----------------------------------------------------------------


Lastly, make sure to vibrato the C# and D# chords when sliding up to them, and you can
add the 5th string roots if it's to your liking, but I left them out, because the notes 
aren't played in the song itself.
            
Submit corrections

comments powered by Disqus
↑ Back to top | 2pac Tabs for Better Dayz. Lyrics for acoustic guitar and electric guitar. 1 Tablatures and chords are parodies/interpretations of the original songs. You may use it for private study, scholarship, research or language learning purposes only