» » »

2ne1, I Love You Chords (ver.1)

Artists:  A B C D E F G H I J K L M N O P Q R S T U V W X Y Z # 

I Love You Chords (ver.1)

2ne1 Tabs
 Rating:
4/5 (4 votes)
I Love You lessons Tabs too difficult? Try these video lessons and learn fast
1
                   Bm                                             D
E----------------------------------------------------------------------------|
B-----3-3---3----3-3---3----3-3---3----3-3---3-----3-3---3----3-3---3--------|
G-----4-4---4----4-4---4----4-4---4----4-4---4-----2-2---2----2-2---2--------|
D-----4-4---4----4-4---4----4-4---4----4-4---4-----0-0---0----0-0---0--------|
A---2-----2---2/2-----2--2/2-----2--2/2-----2---0/0-----0--0/0-----0---------|
E----------------------------------------------------------------------------|
   D                           Bm

E-------------------------------------------------------------------------|
B-----3-3---3----3-3---3----3-3---3----3-3---3-----3-3---3----3-3---3-----|
G-----2-2---2----2-2---2----4-4---4----4-4---4-----4-4---4----4-4---4-----|
D-----0-0---0----0-0---0----4-4---4----4-4---4-----4-4---4----4-4---4-----|
A--0/0-----0--0/0-----0--2/2-----2--2/2-----2---2/2-----2--2/2-----2------|
E-------------------------------------------------------------------------|
Repeat.

CAPO : 1st Fret


[CL] When you feel like there’s no way out
Love is the only way

        Bm
[Minzy] Geudae nayegeman jarhejwoyo
Hangsang nayegema usojwoyo
     D
[CL] I said ooh~ jiltuhage haji mayo
Ooh jipchaghage haji mayo

       Bm
[Minzy] Ajik nan sarangi duryeowoyo
Ireon naege mideum-eul jwobwayo
     D
[CL] I said ooh jiltuhage haji mayo
Ooh jipchaghage haji mayo

     Bm
[Bom] I love you (I love u) uh uh uhu…
D
I love you (I love u) uh uh uhu…

        Bm
[Dara] Haru jongil geudae moseup jakku tteo-olla
Onjongil olliji ahneun jeonhwagiman tto jyeodabwa
       D
[Minzy] Wae ireon nae mameul ajik molla
Nan neoui ma-eumeul ajik jal molla

       Bm
[Dara] Neoui saengage bamen jamdo mut iruda
Dalbiche geudaereul tteo-ollamyeo nae mam gubaekhaebwa
    D
[CL] Wae ireon nae mameul ajik molla
Nan neoui maeumeul ajik jal molla Look at me now

     G              Bm
[Bom] Nae mameul barabwayo
A
Ireohke aetaneunde
G               Bm
Jigeum nal jabajwoyo
A
Nutgi jeone eh eheheh

       Bm
[Dara] I love you (I love u) uh uh uhu…
D
I love you (I love u) uh uh uhu…

    Bm
[CL] Mamchuji mayo sarang nurae
Matjin neol wihae bulleojulge Everyday
D
I say yeah yeah yeah yeah yeah yeah
I say yeah yeah yeah yeah yeah yeah

        Bm
[Minzy] Meomchuji mayo sarangui Dance
I-bameul geudaewa bonaego shipeundae
D
I say yeah yeah yeah yeah yeah yeah
I say yeah yeah yeah yeah yeah yeah

      G          Bm
[Bom] Nae mameul barabwayo
A
Ireokhe aetaneunde
      G         Bm
[CL] Jigeum nal jabajwoyo
A
Nutgi jeone eh eheheh

[Bom] We can’t go wrong,
[Dara] Bring it back

      Bm
[Bom] Milgo danggijineun malajwoyo
Uri jogeumman soljikhaejweoyo
       D
[Minzy] I said ooh jiltuhage haji mayo
Ooh jipchaghage haji mayo
       Bm
[Dara] Odiseo mu-eol halkke gong-geumhaeyo
Hokshi ireon naega jwichanhnayo?
     D
[CL] I said ooh jiltuhage haji mayo
Ooh jiltuhage haji mayo

     Bm
[CL] I love you everyday
Don’t get away
Take me away
I love you everyday
In everyway
Neol saranghae

        D
[Minzy] Wae ireon nae mameul ajik molla
Nan neoui maeumeul ajik jal molla

       Bm
[Bom] I love you everyday
Don’t get away
Take me away
I love you everyday
In everyway
Neol saranghae

     D
[CL] Wae ireon nae mameul ajik molla
Nan neoui maeumeul ajik jal molla
            
Submit corrections

comments powered by Disqus
↑ Back to top | 2ne1 Chords for I Love You. Lyrics for acoustic guitar and electric guitar. 1 Tablatures and chords are parodies/interpretations of the original songs. You may use it for private study, scholarship, research or language learning purposes only