» » »

22-20s, Such A Fool Bass tabs (ver.1)

Artists:  A B C D E F G H I J K L M N O P Q R S T U V W X Y Z # 

Such A Fool Bass tabs (ver.1)

22-20s Tabs
 Rating:
4/5 (5 votes)
Such A Fool lessons Tabs too difficult? Try these video lessons and learn fast
1
                Intro
G|----------------------------------------------------|
D|--------------2-2-2-2-2-4-5-5-5-5-5-5-5-5-5-0-4-0---|
A|--2-2-2-2-2-2---------------------------------------|
E|----------------------------------------------------| X2

Riff
G|----------------------------------------------------|
D|--------------2-2-2-2-2-4-5-5-5-5-5-5-5-5-5-0-4-0---|
A|--2-2-2-2-2-2---------------------------------------|
E|----------------------------------------------------| X3

Pre-Chorus
G|--------------------------------------------2-2-2---|
D|--------------2-2-2-2-2-4-5-5-5-5-5-5-5-5-5---------|
A|--2-2-2-2-2-2---------------------------------------|
E|----------------------------------------------------|

G|--4~------------------------------------------------|
D|----------------------------------------------------|
A|--------------------------------------------0-0-0---|
E|--------------------------2-2-2-2-2-2-2-2-2---------|

1st Chorus
G|----------4---------2-4-----------------------------|
D|--------4---4-2-2-2-----4-5-5-5---------------------|
A|--2-2-2-------------------------5-5-5-------0-0-0---|
E|--------------------------------------3-3-3---------| X2

Riff X3

Pre-Chorus

2nd Chorus
G|----------4---------2-4-----------------------------|
D|--------4---4-2-2-2-----4-5-5-5---------------------|
A|--2-2-2-------------------------5-5-5-------0-0-0---|
E|--------------------------------------3-3-3---------|

G|----------------------------------------------------|
D|--------------2-2-2-2-2-4-5-5-5-5-5-5-5-5-5-0-4-0---|
A|--2-2-2-2-2-2---------------------------------------|
E|----------------------------------------------------|

G|----------4---------2-4-----------------------------|
D|--------4---4-2-2-2-----4-5-5-5---------------------|
A|--2-2-2-------------------------5-5-5-------0-0-0---|
E|--------------------------------------3-3-3---------|

G|--------------------2-4-----------------------------|
D|--------------2-2-2-----4-5-5-5---------------------|
A|--2-2-2-2-2-2-------------------5-5-5-------0-0-0---|
E|--------------------------------------3-3-3---------|

Bridge
G|----------------------------------------------------|
D|--------------2-2-2-2-2-4-5-5-5-5-5-5-5-5-5-0-4-0---|
A|--2-2-2-2-2-2---------------------------------------|
E|----------------------------------------------------| 

G|--------------------------------------------2-2-2---|
D|--------------2-2-2-2-2-4-5-5-5-5-5-5-5-5-5---------|
A|--2-2-2-2-2-2---------------------------------------|
E|----------------------------------------------------|

G|--4-4-4-4-4-4-4-4-4-4-4-4-4-4-4-4-4-4-4-4-4-4-4-4---|
D|----------------------------------------------------|
A|----------------------------------------------------|
E|----------------------------------------------------| X3

G|--4-4-4-4-4-4-------------------------------2-2-2---|
D|--------------2-2-2-2-2-4-5-5-5-5-5-5-5-5-5---------|
A|----------------------------------------------------|
E|----------------------------------------------------|

G|--4~------------------------------------------------|
D|----------------------------------------------------|
A|--------------------------------------------0-0-0---|
E|--------------------------2-2-2-2-2-2-2-2-2---------|

3rd Chorus
G|----------4---------2-4-----------------------------|
D|--------4--4--2-2-2-----4-5-5-5---------------------|
A|--2-2-2-------------------------5-5-5-------0-0-0---|
E|--------------------------------------3-3-3---------| X2

G|--------------------------------------------2-2-2---|
D|--------------2-2-2-2-2-4-5-5-5-5-5-5-5-5-5---------|
A|--2-2-2-2-2-2---------------------------------------|
E|----------------------------------------------------|

G|--4-4-4-4-4-4---------------------------------------|
D|--------------2-2-2-2-2-4-5-5-5-5-5-5-5-5-5-0-4-0---|
A|----------------------------------------------------|
E|----------------------------------------------------|

G|--------------------2-4-----------------------------|
D|--------------2-2-2-----4-5-5-5---------------------|
A|--2-2-2-2-2-2-------------------5-5-5-------0-0-0---|
E|--------------------------------------3-3-3---------|

G|----------------------------------------------------|
D|--------------2-2-2-2-2-4-5-5-5-5-5-5-5-5-5-0-4-0---|
A|--2-2-2-2-2-2---------------------------------------|
E|----------------------------------------------------|

G|--------------------------------------------4-4-4---|
D|--------------2-2-2-2-2-4-5-5-5-5-5-5-5-5-5---------|
A|--2-2-2-2-2-2---------------------------------------|
E|----------------------------------------------------|

Outro
G|--4-4-4-4-4-4-4-4-4-4-4-4-4-4-4-4-4-4-4-4-4-4-4-4---|
D|----------------------------------------------------|
A|----------------------------------------------------|
E|----------------------------------------------------| Several Times Repeat
            
Submit corrections

comments powered by Disqus
↑ Back to top | 22-20s Bass for Such A Fool. Lyrics for acoustic guitar and electric guitar. 1 Tablatures and chords are parodies/interpretations of the original songs. You may use it for private study, scholarship, research or language learning purposes only