» » »

Such A Fool Tabs (ver.1)

Artists:  A B C D E F G H I J K L M N O P Q R S T U V W X Y Z # 

Such A Fool Tabs (ver.1)

22-20s
Rating:
5/5 (2 votes)

Hard to play? Try these video lessons and learn fast.
                22-20's Such a fool
------------------------


I'm not sure of this tabs, it might not be perfect.


Bm : 7-9-9-7-7-7
E  : x-7-9-9-9-7
Em : x-7-9-9-8-7

Intro : Bm, E, Em
        Bm, E, Em


repeat this all song with a quick break at chorus :

            Bm (slow)                  
you're a fool to play things cool
                E
when you've got everything to lose




b : bend

solo 1 : 

  e|------7-------------------7---7---7---------------|
  B|---7----7---7---7---7---7---7---7---7--7--7-------|
  G|---9b---9b--9b--9b--9---9---9---9---9--9--9-------|    x2
  D|--------------------------------------------------|
  A|--------------------------------------------------|
  E|--------------------------------------------------|

solo 2 :

  e|--7-7-7-7-7-7-7-7----10-10-10-10-10-10----12-12-12-12-12-12--|
  B|--x-x-x-x-x-x-x-x----x--x--x--x--x--x-----x--x--x--x--x--x---|
  G|--8-8-8-8-8-8-8-8----10-10-10-10-10-10----12-12-12-12-12-12--| 
  D|-------------------------------------------------------------|
  A|-------------------------------------------------------------|
  E|-------------------------------------------------------------|

  e|-10-10-10-10-10-10--------------------------------|
  B|-x--x--x--x--x--x---------------------------------|
  G|-10-10-10-10-10-10--------------------------------| x2 very fast
  D|--------------------------------------------------|
  A|--------------------------------------------------|
  E|--------------------------------------------------|


then do some bends like in solo 1 ;)
            
Hard to play? Try these video lessons and learn fast. | Correct




comments powered by Disqus
↑ Back to top | Tablatures and chords are parodies/interpretations of the original songs. You may use it for private study, scholarship, research or language learning purposes only