» » »

Kailae Kailae Tabs (ver.1)

Artists:  A B C D E F G H I J K L M N O P Q R S T U V W X Y Z # 

Kailae Kailae Tabs (ver.1)

1974 Ad
Rating:
0/5 (0 votes)

Hard to play? Try these video lessons and learn fast.
                O0K NOW THIS IS THE FULL VERSION OF "KAILAE KAILAE" SONG
THE CONTENT HAS LEAD+LYRICS+RYTHM AS WELL

..ok this song ig very melodious
..the intro chords used are:(Gm/Cm/F/Bb/Cm/F/Bb/D)--2
..then the intro lead is also played along the intro rythm
...which goes like this.....

E||----------------------------|--6-------6------------------------10--|
B||----------4--3h4\1-1-3-4-4/6|----6\5\4---8/10\8-----------4---------|
G||------3---------------------|--------------------10---3/5-----------|
D||--3/5---5-------------------|---------------------------------7-----|
A||----------------------------|---------------------------------------|
E||----------------------------|---------------------------------------|

..the intro part finishes here and the song starts now..

Gm     Bb     Cm     Gm         Bb       D            Gm/Daug/Bb/Daug
kailae kailae timro jajhalko yo aankhama nachauna man lagcha
 
Gm     Bb     Cm      Gm         Bb         D           Gm/Daug/Bb/Daug
kailae kailae timilai kalpana ko rani banai hidauna man lagcha

now the lead part again starts
the chords used are:(Gm/Cm/F/Bb/D)--2
the lead goes on like this

E||----------------------------------------------------------12---|
B||--10p12---------8---------------8------------------------------|
G||--------8--8h10----12p14-7-8h10---10p12--7h8\7-5-7h8/10--------|
D||---------------------------------------------------------------|
A||---------------------------------------------------------------|
E||---------------------------------------------------------------|

E||-----------13-13-----------------------------------------------|
B||--12-13-15-------15--15\13\12-----13--15-15\13\12----11--------|
G||-------------------------------14-----------------14-----------|
D||---------------------------------------------------------------|
A||---------------------------------------------------------------|
E||---------------------------------------------------------------|

E||---------------------------------------------------------------|
B||--9h10\9----11-10----------------------------------------------|
G||---------12-------12-10---10h12\10-----------------------------|
D||------------------------------------12--12h13\12/10------------|
A||---------------------------------------------------------------|
E||---------------------------------------------------------------|

E||--------------7h8h10--9h10h12--12/13--14-----------------------|
B||--------8h9h11---------------------------15--------------------|
G||--7h8h10------------------------------------14-----------------|
D||-----------------------------------------------16--------------|
A||--------------------------------------------------17\5---------|
E||---------------------------------------------------------------|

again the song carris on

Bb            Gm        Cm    F             Bb     D
timilai jiwan ko bhakha sitai sadhai bandhu bhanchu

     Bb       Gm           Cm  F               Bb
tara sabai ye mera bhawana ka lahar matrai nai hun

      F        Gm/Daug/Bb/Daug
jasto malai lagcha

kailae kailae...........
............................
. again the lead comes played in the chords:(Gm/Cm/F/Bb/Cm/F/Bb/Bb/D/D).


E||---------------------------------------6-5-6-6/8--8--8------------|
B||8h10p12--10\8h10-----------------------8-7-8-8/10-10-10-----------|
G||-------------------10-12/14---------------------------------------|
D||------------------------------12-12\7-----------------------------|
A||------------------------------------------------------------------|
E||------------------------------------------------------------------|

E||-6--8--8/10-10-10-10--8--8--6-------------------13-10-------------|
B||-8-10-10/12-12-12-12-10-10--8-------11-13-13p---------------------|
G||---------------------------------12-------------------------------|
D||------------------------------------------------------------------|
A||------------------------------------------------------------------|
E||------------------------------------------------------------------|

..again the song continues.........

Bb           Gm       Gm     F           Bb      D
timilai maya ko sabda bhari chithi lekhu bhanchu

     Bb        Gm           Cm F                Bb
tara sabai ye meara kalpana ko bahai matrai nai hun

      F       Gm/Daug/Bb/Daug
jasto malai lagcha

kailae kailae....................
......................................

------------------------THE---------------------------------
------------------------END---------------------------------

SO THIS IS THE END OF THE SONG
HOPE U ALL WILL NJOY IT.............
            
Hard to play? Try these video lessons and learn fast. | Correct




comments powered by Disqus
↑ Back to top | Tablatures and chords are parodies/interpretations of the original songs. You may use it for private study, scholarship, research or language learning purposes only