» » »

1974 Ad, Nepali Chords (ver.1)

Artists:  A B C D E F G H I J K L M N O P Q R S T U V W X Y Z # 

Nepali Chords (ver.1)

1974 Ad Tabs
 Rating:
4/5 (4 votes)
Nepali lessons Tabs too difficult? Try these video lessons and learn fast
                artist;1974 ad
title;nepali
standard tuning:eBGDAE

CHORDS USED:

C:X32010
Em:022000
Am:x02210
F:133211
G:355433
Dm:X57765

KEY:

X=NOT TO PLAY
*=TAP
~=LET RING
h=HAMMER 0N

INTRO[2X]

   C    Em   Am      F          G        F    C
e-0-0--0-0--0-*-00--1-1-1-1--3-*-3-33--1-*-1-11--0~-----|
B-1-1--0-0--1-*-11--1-1-1-1--3-*-3-33--1-*-1-11--1~-----|
G-0-0--0-0--2-*-22--2-2-2-2--4-*-4-44--2-*-2-22--0~-----|
D-2-2--2-2--2-*-22--3-3-3-3--5-*-5-55--3-*-3-33--2~-----|
A-3-3--2-2--0-*-00--3-3-3-3--5-*-5-55--3-*-3-33--3~-----|
E-X-X--0-0--X-*-XX--1-1-1-1--3-*-3-33--1-*-1-11--X~-----|

VERSE:

C          Em        Am                 F
JAASO GARA JE BHANA JATA SUKAI LAI JOU MALAI

G           F          C
YO MAAN TA MERO NEPALI HO

Em             Am
MALAI GARV CHA HAMRO PHURKA LE

F            G    C
KATHI BETHA HARU SAHERA

Am       F                  C
ITHAS MA KATHA TA LEKHE KO CHA


OK THATS IT REPEAT THE WHOLE SONG THRU THIS CHORDS

THE SOLO FOR THE 1ST VERSEIN THE LINE'JATA SUKAI LAI JOU MALAI'
[IT ENTERS  AFTER VERSE]

e--5-5h6---------|
B--6----8-6------|
G--7-------------|
D--7-------------|
A--5-------------|
E--X-------------|
            
Submit corrections

comments powered by Disqus
↑ Back to top | 1974 Ad Chords for Nepali. Lyrics for acoustic guitar and electric guitar. Tablatures and chords are parodies/interpretations of the original songs. You may use it for private study, scholarship, research or language learning purposes only