>
 >
Jungi Nissanrato

Jungi Nissanrato Guitar Tabs

1974 Ad - Jungi Nissanrato chords, tabs, tablatures, lyrics

Guitar lessons | Add/correct | Request | Top 50 tabs Artists:  A B C D E F G H I J K L M N O P Q R S T U V W X Y Z 0-9

Jungi Nissanrato Guitar Tabs – 1974 Ad

CD, Sheet music, Poster

Do you like Jungi Nissanrato? Share with your friends now
Tabs

JUNGI NISSAN(RATO...)
               -1974 A.D.


C         
Rato ra chandra surya
G
Jungi Nissan a hamro  o o
F
Jiudo ragat saree yo....
 D                 c
Baldo yo Saan a hamro...o

F
Himala jhai atal yo...
C
Jhukena yo kahile...
G
Latrena yo kahile...
C
Jungi nisaan a hamro...

C
Yo janmadai jagat ma...
G
Kaiyou prahara aaye
F
Samrajya dubai haare...
D                 C
Harena saan a hamro...

C
Jaba samma chandra-surya
G
Aakasha ma rahancha..
F
Taba samma hunchha aafnai
D               C
Rato ragat a hamro....

C
Gai sari chhan sadhu..
G
Jo jo yeha jagat ma
F
Sabko saran a baljyo
D                 C
jungi nisaan a hamro...





Intro riff
E

                    C5 C5                                                 
     E  Q    Q    E  E  E     E  E  E  E   Q      Q      4x
E||-------------------------|-----------------------------||
B||-------------------------|-----------------------------||
G||*--5--5------------------|----------------------------*||
D||*--5--5------------------|----------------------------*||
A||---3--3---------3--------|--1-----0--------------------||
E||-------------------3--3--|-----3-----1--(1)----(1)-----||



End of riff:
                                                       
                                     PM   PM                                   
  Q    E  Q    E  Q       E  Q    E  Q    E            
-----------------------|---------------------|-----|
-----------------------|---------------------|-----|
-----------------------|---------------------|-----|
----------2----2--3----|--3--4----4--5----5--|-----|
--3----3---------------|---------------------|-----|
-----------------------|---------------------|-----|




Bridge:
   C5 C5                  
    E  Q    Q    E  E  E  
|-------------------------| 
|-------------------------|
|*--5--5------------------|
|*--5--5------------------|
|---3--3---------3--------|
|-------------------3--3--|


                                 D#5 D#5                 
  E  E  E  E   Q      Q          E   Q    Q    E  E  E   
-----------------------------||-------------------------|
-----------------------------||-------------------------|
----------------------------*||--8---8------------------|
----------------------------*||--8---8------------------|
--1-----0--------------------||--6---6---------3--------|
-----3-----1--(1)----(1)-----||-------------------3--3--|


                                F5  F5                  
  E  E  E  E   Q      Q         E   Q    Q    E  E  E   
----------------------------|--------------------------|
----------------------------|--------------------------|
----------------------------|--10--10------------------|
----------------------------|--10--10------------------|
--1-----0-------------------|---8---8---------3--------|
-----3-----1--(1)----(1)----|--------------------3--3--|


                                                W       
  E  E  E  E   Q      Q        Q    E  Q    E   E   E   
----------------------------|--------------------------|
----------------------------|--------------------------|
----------------------------|--------------------------|
----------------------------|--------------------------|
--1-----0-------------------|--6-------8-------10~-----|
-----3-----1--(1)----(1)----|-------6-------8----------|

Lead part:..........


  Q      Q     Q    Q           Q     E  E  E  Q    E    
----------------------------|---------------------------|
--8~----(8)----6----5br~----|--(5)----------------------|
----------------------------|---------5--8--5-------5~--|
----------------------------|------------------8--------|
----------------------------|---------------------------|
----------------------------|---------------------------|


  W                                                        
  Q      Q     Q      E  E       Q     Q      E  Q     E   
-------------------------6~--|--(6)----8br----6--8~----6--|
--8~----(8)----6br----4------|----------------------------|
-----------------------------|----------------------------|
-----------------------------|----------------------------|
-----------------------------|----------------------------|
-----------------------------|----------------------------|


   Q       E   Q       
--13br----11---------||
--------------13~----||
---------------------||
---------------------||
---------------------||
---------------------||





Comments


Popular 1974 Ad tabs & chords
Chudaina Timro Mayale Chords
Nepali Chords
Pahilo Junima 1 Chords
Pahilo Junima 2 Chords
Sombodhan Chords
Dherai Dherai Tabs
Nepali Tabs
Pahilo Junima Tabs
Jaso Gara Je Bhana Intro Ukulele
Nepali Ukulele


Song lyrics



↑ Back to top | Tablatures and chords are parodies/interpretations of the original songs. You may use it for private study, scholarship, research or language learning purposes only
© 2014 AZChords.com Contact us | Privacy policy | DMCA | Add/correct tabs | Request tabs | Top 50 tabs