» »

/0-9/1349-tabs-44014.html

»

1349, Hellfire Tabs (ver.1)

Artists:  A B C D E F G H I J K L M N O P Q R S T U V W X Y Z # 

Hellfire Tabs (ver.1)

1349 Tabs
 Rating:
4/5 (9 votes)
Hellfire lessons Tabs too difficult? Try these video lessons and learn fast
1
                                                        Hellfire
                                           1349
                                         Hellfire
                                  Candlelight Records (2005)



Tuning: EADGBe

(Guitars have heavy reverb)
--- Listen to the song for the timings

Intro: Choir + Cymbals

 Riff A (3:13)
                               x2
||-------------------------------||-----------------------------|
||-------------------------------||-----------------------------|
||-------------------------------||-----------------------------|
||--4"---5"---4"---5"---4"---5"--||---2"--------9"-10"----------|
||--2"---2"---2"---2"---2"---2"--||---4"--------7"-8"-9"--------|
||-------------------------------||-------------------7"--------|

 Riff B (4:00)
||------------------------------------------|| x3
||------------------------------------------||
||------------------------------------------||
||--4"---5"---4"---5"---2"--------9"-10"----||
||--2"---2"---2"---2"---4"--------7"-8"-9"--||
||--------------------------------------7"--||

 Riff C (5:00)
|--------------------------------------||---------------|| x4
|--------------------------------------||---------------||
|--------------------------------------||---------------||
|--4"---5"---4"---5"---2"--------------||--9"-7"-4"-5"--||
|--2"---2"---2"---2"---4"--------------||--7"-5"-2"-3"--||
|--------------------------------------||---------------||
 (this first riff is only played once)

|--------------------------------------||---------------|| x4
|--------------------------------------||---------------||
|--------------------------------------||---------------||
|--4"---5"---4"---5"---2"--------------||--9"-7"-4"-5"--||
|--2"---2"---2"---2"---4"--------------||--7"-5"-2"-3"--||
|--------------------------------------||---------------||

 Riff D (6:32) ("my icon is the cross..")
||------------------------------------------|| x4
||------------------------------------------||
||------------------------------------------||
||--4"---5"---4"---5"---2"--------9"-10"----||
||--2"---2"---2"---2"---4"--------7"-8"-9"--||
||--------------------------------------7"--||


 Riff E (7:50)
||------------------|| x4
||---------7"-8"----||
||------------------||
||------------------||
||--9"--------------||
||--7"--------------||


 Riff F  (8:18) ("Of the new order..")
|-----------------------------------------------------------|
|--------8"----------8"----------8"-7"-8"-7"---8"-7"-8"-----|
|-----------------------------------------------------------|
|-----------------------------------------------------------|
|---9"----------9"----------9-------------------------------|
|---7"----------7"----------7-------------------------------|
pm  .           .

|-----------------------------------------------------------|
|--------8"----------8"-----------7"--8"-7"---8"-7"-8"------|
|-----------------------------------------------------------|
|-----------------------------------------------------------|
|---9"----------9"----------9-------------------------------|
|---7"----------7"----------7-------------------------------|
pm  .           .

||-----------------------------------------------------------|| x2
||--------8"----------8"----------7"---8"-7"---7"-8"-7"------||
||-----------------------------------------------------------||
||-----------------------------------------------------------||
||---9"----------9"----------9-------------------------------||
||---7"----------7"----------7-------------------------------||
pm   .           .

 Riff G  (8:48) slows down
||-----------------------------------------------------------------------|| x4
||-----------------------------------------------------------------------||
||--------------------------------------------4--5-----------4--5--4-----||
||----------4--5----------4--5--4----------------------------------------||
||-------2-------------2-----------2-------2--------------2--------------||
||----0-------------0-------------------0--------------0-----------------||


 Riff H  (9:16) (drums slow down)
||------------------------------------------|| x2
||------------------------------------------||
||------------------------------------------||
||--4"---5"---4"---5"---2"--------9"-10"----||
||--2"---2"---2"---2"---4"--------7"-8"-9"--||
||--------------------------------------7"--||


 Riff I (9:55)
|--------------------------------------||---------------|| x4
|--------------------------------------||---------------||
|--------------------------------------||---------------||
|--4"---5"---4"---5"---2"--------------||--9"-7"-4"-5"--||
|--2"---2"---2"---2"---4"--------------||--7"-5"-2"-3"--||
|--------------------------------------||---------------||
  (1st part played once)


 Riff J (10:39)
||-------------------------------------------------------------------------|
||-------------------------------------------------------------------------|
||------7"----7"----7"----5"----5"----5"----7"----7"----7"-----5"-----4"---|
||---5"----5"----5"----3"----3"----3"----5"----5"----5"----3"-----2"-------|
||-------------------------------------------------------------------------|
||-------------------------------------------------------------------------|

----------------------------------------------------------------------------------------|
----------------------------------------------------------------------------------------|
-----5"----5"----5"----7"----7"----7"----5"----5"----5"----7"----7"----7"-----5"-----4"-|
--3"----3"----3"----5"----5"----5"----3"----3"----3"----5"----5"----5"----3"-----2"-----|
----------------------------------------------------------------------------------------|
----------------------------------------------------------------------------------------|


---------------------------------------------------------|| x4
---------------------------------------------------------||
----------------------12"--------------------------------||
---7"--8"--10"---12"--12"--10"--7"----8"--7"--5"--7"-----||
---5"--5"--8"----10"--10"--8"---5"----5"--5"--3"--5"-----||
---------------------------------------------------------||

 Riff K (13:09)
||-------------------------------------------------------------------------|
||-------------------------------------------------------------------------|
||------7"----7"----7"----5"----5"----5"----7"----7"----7"-----5"-----4"---|
||---5"----5"----5"----3"----3"----3"----5"----5"----5"----3"-----2"-------|
||-------------------------------------------------------------------------|
||-------------------------------------------------------------------------|

 ---------------------------------------------------------------------------------------|
 ---------------------------------------------------------------------------------------|
 ----5"----5"----5"----7"----7"----7"----5"----5"----5"----7"----7"----7"-----5"-----4--|
 -3"----3"----3"----5"----5"----5"----3"----3"----3"----5"----5"----5"----3"-----2"-----|
 ---------------------------------------------------------------------------------------|
 ---------------------------------------------------------------------------------------|

   Let Ring
 -------------||
 -------------||
 -------------||
 ---4---------||
 ---2---------||
 -------------||


Hope you enjoy.
This is my first tab, so im sorry if there are a few mistakes
it sounds pretty much right to me.
Im happy to accept any corrections or creative critisism

Special thanks to: T-Force
            
Submit corrections

comments powered by Disqus
↑ Back to top | 1349 Tabs for Hellfire. Lyrics for acoustic guitar and electric guitar. 1 Tablatures and chords are parodies/interpretations of the original songs. You may use it for private study, scholarship, research or language learning purposes only