» » »

We Are One Tabs (ver.3)

Artists:  A B C D E F G H I J K L M N O P Q R S T U V W X Y Z # 

We Are One Tabs (ver.3)

12 Stones
Rating:
0/5 (0 votes)

Hard to play? Try these video lessons and learn fast.
                This tab can also be played in Drop C, but for those of us who dont want to tune there 
can use this. Also, i think the intro is more correct than any other tab.
-12stoneslover33
NOTE: if you want to play in drop C, move notes up a whole step (for you idiots that 
dont know what that is, its up 2 frets :P )

Lead guitar
Intro/verse
|----------------------------------------------------------------------------|
|----------------------------------------------------------------------------|
|--12---12---10---10---15---15---13---13---12---12---10---10---8--8---8--8---|
|----10---10---10---10---10---10---10---10---10---10---10----10-10-10-10-10--|
|----------------------------------------------------------------------------|6x
|----------------------------------------------------------------------------|
|----------------------------------------------------------------------------|

Chorus
|--------------------------------------------------------------------------|
|--------------------------------------------------------------------------|
|--------------------------------------------------------------------------|
|--------------------------------------------------------------------------|
|-3-33/8-88\1-11/6-66\3-33/8-88\1-11/6-66\\--------------------------------|
|-3-33/8-88\1-11/6-66\3-33/8-88\1-11/6-66\\--------------------------------|

Intro/verse 4x
Chorus 1x
Bridge
|----------------------------------------------------------------------------|
|-/6-/6-/9-/9-/11/11/13-11/13\11\9-------------------------------------------|
|-/5-/5-/8-/8-/10/10/12-10/12\10\8-------------------------------------------|
|-/3-/3-/6-/6-/8-/8-/10--8/10\8\-6-------------------------------------------|2x
|----------------------------------------------------------------------------|
|----------------------------------------------------------------------------|

At the end of the second one, play this:
|-----------------|
|1313131313131313~|
|1212121212121212~|
|1010101010101010~|
|-----------------|
|-----------------|

Intro 3x
Chorus 1x
Bridge 2x
Intro 3x

Rhythm Guitar
Verse- guitar 1 plays intro riff 2x first
|--------------------------------------------------------------------------|
|--------------------------------------------------------------------------|
|--------------------------------------------------------------------------|
|--------------------------------------------------------------------------|
|-33333333/66666666\11111111/88888888-4x-then-8888888888888888\------------|
|-33333333/66666666\11111111/88888888---------8888888888888888\------------|

Chorus
|--------------------------------------------------------------------------|
|--------------------------------------------------------------------------|
|--------------------------------------------------------------------------|
|--------------------------------------------------------------------------|
|-3-33/8-88\1-11/6-66\3-33/8-88\1-11/6-66\\--------------------------------|
|-3-33/8-88\1-11/6-66\3-33/8-88\1-11/6-66\\--------------------------------|

Verse 4x
Chorus 1x
Bridge
|--------------------------------------------------------------------------|
|--------------------------------------------------------------------------|
|--------------------------------------------------------------------------|
|--------------------------------------------------------------------------|
|-/3-/3-/6-/6-/8-/8-/10-8/10\8\6-/3-/3-/6-/6-/8-/8-/10-8/1010101010101010~-|
|-/3-/3-/6-/6-/8-/8-/10-8/10\8\6-/3-/3-/6-/6-/8-/8-/10-8/1010101010101010~-|

Verse 2x
Chorus 1x
Bridge 1x
End on
|--|
|--|
|--|
|3~|
|3~|
|3~|
            
Hard to play? Try these video lessons and learn fast. | Correct




comments powered by Disqus
↑ Back to top | Tablatures and chords are parodies/interpretations of the original songs. You may use it for private study, scholarship, research or language learning purposes only