» » »

12 Stones, Tomorrow Comes Today Tabs (ver.2)

Artists:  A B C D E F G H I J K L M N O P Q R S T U V W X Y Z # 

Tomorrow Comes Today Tabs (ver.2)

12 Stones Tabs
 Rating:
4/5 (4 votes)
Tomorrow Comes Today lessons Tabs too difficult? Try these video lessons and learn fast
1
                Tuning: Drop D (DAdGBE)

| .  palm-mute

Gives me goose bumps listening to this, so epic. :) Rhythm not posted

Intro Riff           
E|--------------5----|           E|-------------------|
B|----3---5-3-----3--|           B|-------------------|
G|--2---2-----2------|           G|-------------------|
d|-------------------|           d|-------------------|
A|-------------------|           A|----5---5-5-5-5-5--|
D|-------------------|           D|--0---0------------|
                                     ...............

Verse 1--Keep playing the Intro
E|-----------------------|
B|-----------------------|
G|-----------------------| x2. Each of these notes is played continuously
d|---0----7----9----5----|     until it's changed to the next one, I just
A|-----------------------|     didn't feel like writing it all out. ;)
D|-----------------------|
     ................

This comes in half way thru the verse. Release the palm muting on the 10s as you 
lead up to the chorus
E|----------------------------|
B|----------------------------|
G|----------------------------|
d|-----------------------10---|
A|---0----7----9----10---10---|
D|---0----7----9----10---10---|
     ...................

Chorus
E|----------------------|               E|--------------------|
B|----------------------|               B|----7---8-7---10-7--|
G|----------------------|               G|--7---7-----7-------|
d|---0----7----9----5---|               d|--------------------|
A|---0----7----9----5---|               A|--------------------|
D|---0----7----9----5---|               D|--------------------|

Verse 2
E|------------------------------------------------|
B|------------------------------------------------|
G|------------------------------------------------|
d|-------------------------------------------10---|
A|---0----7----9----5----0----7----9----10---10---|
D|---0----7----9----5----0----7----9----10---10---|
     .......................................

Bridge
E|----------------------|
B|----------------------|
G|----------------------| x2
d|---2----5----0----7---|
A|---2----5----0----7---|
D|---2----5----0----7---|

E|--------------------------------------------------------------------|
B|--------------------------------------------------------------------|
G|------------------/7-7-7-7-7-7-7-7-----------------9-9-9-9-9-9-9-9--|
d|--2-2-2-2-2-2-4-4------------------7-7-7-7-7-7-7-7------------------|
A|--------------------------------------------------------------------|
D|--------------------------------------------------------------------|

e|----------------------------------------------------|
B|----------------------------------------------------|
G|------------------/7-7-7-7-7-7-7-7------------------|
D|--2-2-2-2-2-2-4-4------------------7-7-7-7-7-7-7-7--|
A|----------------------------------------------------|
E|----------------------------------------------------|

E|---------------------------------------|
B|------------------7-7-8-8-10-10-10-10--|
G|---------------------------------------|
d|---------------------------------------|
A|--4-4-5-5-7-7-7-7----------------------|
D|---------------------------------------|

Outro--Put this part in after the last chorus starts to break down and end with a 
strong D power chord (000---)
E|-------------------------------------------------------------|
B|-------------------------------------------------------------|
G|--7-7-7-6-6-6-7-7--7-7-7-6-6-6-7-7--14-14-14-12-12-12-11-11--|
d|--x-x-x-x-x-x-x-x--x-x-x-x-x-x-x-x--x--x--x--x--x--x--x--x---|
A|--5-5-5-4-4-4-5-5--5-5-5-4-4-4-5-5--12-12-12-10-10-10-9--9---|
D|-------------------------------------------------------------|

E|---------------------------------------------------------------|
B|---------------------------------------------------------------|
G|--14-14-14-12-12-12-11-11--6-6-6-6/9--7-7-7--6-6-6-6/9--7-7-7--|
d|--x--x--x--x--x--x--x--x---x-x-x-x----x-x-x--x-x-x-x----x-x-x--|
A|--12-12-12-10-10-10-9--9---4-4-4-4/7--5-5-5--4-4-4-4/7--5-5-5--|
D|---------------------------------------------------------------|

E|--------------------------------------------------------|
B|--------------------------------------------------------|
G|--14-14-14-12-12-12-11-11--14-14-14-12-12-12-11-11--7~--|
d|--x--x--x--x--x--x--x--x---x--x--x--x--x--x--x--x---x---|
A|--12-12-12-10-10-10-9--9---12-12-12-10-10-10-9--9---5~--|
D|--------------------------------------------------------|

Done. God bless. :)
            
Submit corrections

comments powered by Disqus
↑ Back to top | 12 Stones Tabs for Tomorrow Comes Today. Lyrics for acoustic guitar and electric guitar. 1 Tablatures and chords are parodies/interpretations of the original songs. You may use it for private study, scholarship, research or language learning purposes only