» » »

12 Stones, Broken Tabs (ver.10)

Artists:  A B C D E F G H I J K L M N O P Q R S T U V W X Y Z # 

Broken Tabs (ver.10)

12 Stones Tabs
 Rating:
4/5 (8 votes)
Broken lessons Tabs too difficult? Try these video lessons and learn fast
1
                Gtr I (D A D G B E) - 'Untitled'
Gtr II (D A D G B E) - 'Untitled'
Gtr III (D A D G B E) - 'overdub'


 Chorus
  Q=100
          D5                D5                    C5
 4/4
  Gtr I
  H    Q   s   S   S   S    E E S S  S   S  E E S E +S
|-------------------------|------------------------------||
|-------------------------|------------------------------||
|-------------------------|-7-7-x-x---7-7-x-5-(5)--------||
|---------<0>-<0>-<0>-<0>-|-7-7-x-x---7-7-x-5-(5)--------||
|---------<0>-<0>-<0>-<0>-|-5-5-x-x---5-5-x-3-(3)--------||
|---------<0>-<0>-<0>-<0>-|------------------------------||


  Bb5                   C5
  E E S S  S   S  E E S E +S
|------------------------------||
|------------------------------||
|-3-3-x-x---3-3-x-5-(5)--------||
|-3-3-x-x---3-3-x-5-(5)--------||
|-1-1-x-x---1-1-x-3-(3)--------||
|------------------------------||


  D5                    C5       Bb5                   C5
  E E S S  S   S  E E S  E +S    E E S S  S   S  E E S E +S
|------------------------------|------------------------------||
|------------------------------|------------------------------||
|-7-7-x-x---7-7-x--5-(5)-|-3-3-x-x---3-3-x-5-(5)--------------||
|-7-7-x-x---7-7-x--5-(5)-|-3-3-x-x---3-3-x-5-(5)--------------||
|-5-5-x-x---5-5-x--3-(3)-|-1-1-x-x---1-1-x-3-(3)--------------||
|------------------------------|------------------------------||
|
| Gtr III
| E E S S  S   S  E E S  E  S    E E S S  S   S  E E S E  S
|------------------------------|-----------------------------|
|------------------------------|-----------------------------|
|-7-7-7-7--7---7--7-7-7S10-10--|-3-3-3-3--3---3--3-3-3S5--5--|
|-x-x-x-x--x---x--x-x-xS=x--x--|-x-x-x-x--x---x--x-x-xSx--x--|
|-5-5-5-5--5---5--5-5-5S=8--8--|-1-1-1-1--1---1--1-1-1S3--3--|
|------------------------------|-----------------------------|


   Verse
    Gtr II
    E E E E E E E E   E E Q  E E E S S  5x
||------------------|-------------------||
||o-----------------|------------------o||
||------2-----------|-------------------||
||----3---3-0-3---3-|---0-3------3---3--||
||o-------------3---|-1------1S3-------o||
||--0---------------|-------------------||


                             Gtr I
  E E E E E E E E   E E Q  E S S E S S
|-----------------|--------------------|
|-----------------|--------------------|
|-----2-----------|----------x-x---x-x-|
|---3---3-0-3---3-|---0-3----x-x---x-x-|
|-------------3---|-1--------x-x---x-x-|
|-0---------------|--------------------|


   Chorus
    D5                    C5      Bb5                   C5
    E E S S  S   S  E E S E +S    E E S S  S   S  E E S E +S
||------------------------------|--------------------------------||
||o-----------------------------|-----------------------------o--||
||--7-7-x-x---7-7-x-5-(5)-|-3-3-x-x---3-3-x-5-(5)----------------||
||--7-7-x-x---7-7-x-5-(5)-|-3-3-x-x---3-3-x-5-(5)----------------||
||o-5-5-x-x---5-5-x-3-(3)-|-1-1-x-x---1-1-x-3-(3)-o--------------||
||------------------------------|--------------------------------||


    D5                    C5       Bb5                   C5
    E E S S  S   S  E E S  E +S    E E S S  S   S  E E S E +S
||-------------------------------|--------------------------------||
||o------------------------------|-----------------------------o--||
||--7-7-x-x---7-7-x--5-(5)-|-3-3-x-x---3-3-x-5-(5)----------------||
||--7-7-x-x---7-7-x--5-(5)-|-3-3-x-x---3-3-x-5-(5)----------------||
||o-5-5-x-x---5-5-x--3-(3)-|-1-1-x-x---1-1-x-3-(3)-o--------------||
||-------------------------------|--------------------------------||
|
|   Gtr III
|   E E S S  S   S  E E S  E  S    E E S S  S   S  E E S E  S
||-------------------------------|------------------------------||
||o------------------------------|-----------------------------o||
||--7-7-7-7--7---7--7-7-7S10-10--|-3-3-3-3--3---3--3-3-3S5--5---||
||--x-x-x-x--x---x--x-x-xS=x--x--|-x-x-x-x--x---x--x-x-xSx--x---||
||o-5-5-5-5--5---5--5-5-5S=8--8--|-1-1-1-1--1---1--1-1-1S3--3--o||
||-------------------------------|------------------------------||


   Verse
    Gtr II
    E E E E E E E E   E E Q  E E E S S  5x
||------------------|-------------------||
||o-----------------|------------------o||
||------2-----------|-------------------||
||----3---3-0-3---3-|---0-3------3---3--||
||o-------------3---|-1------1S3-------o||
||--0---------------|-------------------||


                             Gtr I
  E E E E E E E E   E E Q  E S S E S S
|-----------------|--------------------|
|-----------------|--------------------|
|-----2-----------|----------x-x---x-x-|
|---3---3-0-3---3-|---0-3----x-x---x-x-|
|-------------3---|-1--------x-x---x-x-|
|-0---------------|--------------------|


   Chorus
    D5                    C5      Bb5                   C5
    E E S S  S   S  E E S E +S    E E S S  S   S  E E S E +S
||------------------------------|--------------------------------||
||o-----------------------------|-----------------------------o--||
||--7-7-x-x---7-7-x-5-(5)-|-3-3-x-x---3-3-x-5-(5)----------------||
||--7-7-x-x---7-7-x-5-(5)-|-3-3-x-x---3-3-x-5-(5)----------------||
||o-5-5-x-x---5-5-x-3-(3)-|-1-1-x-x---1-1-x-3-(3)-o--------------||
||------------------------------|--------------------------------||


    D5                    C5       Bb5                   C5
    E E S S  S   S  E E S  E +S    E E S S  S   S  E E S E +S
||-------------------------------|--------------------------------||
||o------------------------------|-----------------------------o--||
||--7-7-x-x---7-7-x--5-(5)-|-3-3-x-x---3-3-x-5-(5)----------------||
||--7-7-x-x---7-7-x--5-(5)-|-3-3-x-x---3-3-x-5-(5)----------------||
||o-5-5-x-x---5-5-x--3-(3)-|-1-1-x-x---1-1-x-3-(3)-o--------------||
||-------------------------------|--------------------------------||
|
|   Gtr III
|   E E S S  S   S  E E S  E  S    E E S S  S   S  E E S E  S
||-------------------------------|------------------------------||
||o------------------------------|-----------------------------o||
||--7-7-7-7--7---7--7-7-7S10-10--|-3-3-3-3--3---3--3-3-3S5--5---||
||--x-x-x-x--x---x--x-x-xS=x--x--|-x-x-x-x--x---x--x-x-xSx--x---||
||o-5-5-5-5--5---5--5-5-5S=8--8--|-1-1-1-1--1---1--1-1-1S3--3--o||
||-------------------------------|------------------------------||


   Interlude
    D5 F           G          F5 F           E  D
    Q   E  S  S  E  E  E  E   Q   E  S  S  E Q  E  4x
||--------------------------|----------------------||
||o-------------------------|---------------------o||
||-----10-10-10-10S12-12-12-|----10-10-10-10S9S=7--||
||--0---x--x--x--xS=x--x--x-|-3---x--x--x--xSxS=x--||
||o-0---8--8--8--8S10-10-10-|-3---8--8--8--8S7S=5-o||
||--0-----------------------|-3--------------------||


   Guitar Solo
    PM--------------------------------------------------------------|
    S S S S S S S S S S S S S S S S   S S S S S S S S S S S S S S S S
||----------------------------------|-----------------------------------||
||o---------------------------------|-----------------1-1--------------o||
||------------------0-0-------------|---------------------3-3-2-2-3-3---||
||--0-0-3-3-2-2-3-3-----3-3-2-2-0-0-|-----3-3-2-2-3-3-------------------||
||o---------------------------------|-1-1------------------------------o||
||----------------------------------|-----------------------------------||
|
|   Gtr III
|   PM|
|   S S E   Q       H                 W
||----------------------------------|-----------------------------------||
||o---------------------------------|----------------------------------o||
||--7-7-----------------------------|-3---------------------------------||
||--7-7-----------------------------|-3---------------------------------||
||o-5-5-----------------------------|-1--------------------------------o||
||----------------------------------|-----------------------------------||


  PM---------------------------------------
  S S  S  S S S  S  S  S  S  S  S S S S S
|-----------------------------------------|
|-----------------------------------------|
|----------------------0--0---------------|
|-0-0--3--3-2-2--3--3--------3--3-2-2-0-0-|
|-----------------------------------------|
|-----------------------------------------|
|
| Gtr III
| S S  S  S S S  S  S  S  S  S  S S S S S
|-----------------------------------------|
|-----------------------------------------|
|-7-7-10-10-9-9-10-10-12-12-10-10-9-9-2-2-|
|-x-x--x--x-x-x--x--x--x--x--x--x-x-x-x-x-|
|-5-5--8--8-7-7--8--8-10-19--8--8-7-7-0-0-|
|-----------------------------------------|


 ------------------------------------------|
  S S  S  S S S  S  S  S  S  S  S  S  S  S  S
|---------------------------------------------|
|----------------------1--1-------------------|
|----------------------------3--3--2--2--3--3-|
|------3--3-2-2--3--3-------------------------|
|-1-1-----------------------------------------|
|---------------------------------------------|
|
| S S  S  S S S  S  S  S  S  S  S  S  S  S  S
|---------------------------------------------|
|---------------------------------------------|
|-3-3-10-10-9-9-10-10-17-17-15-15-14-14-15-15-|
|-x-x--x--x-x-x--x--x--x--x--x--x--x--x--x--x-|
|-1-1--8--8-7-7--8--8-15-15-13-13-12-12-13-13-|
|---------------------------------------------|


  PM------------------------------------------------------------|
  S S  S  S S S  S  S  S  S  S  S S S S S   S S  S  S S S  S  S  Q   +Q
|-----------------------------------------|--------------------------------|
|-----------------------------------------|----------------------1---(1)/--|
|----------------------0--0---------------|--------------------------------|
|-0-0--3--3-2-2--3--3--------3--3-2-2-0-0-|------3--3-2-2--3--3------------|
|-----------------------------------------|-1-1----------------------------|
|-----------------------------------------|--------------------------------|
|
| Gtr III
| S S  S  S S S  S  S  S  S  S  S S S S S   S S  S  S S S  S  S  Q   +Q
|-----------------------------------------|--------------------------------|
|-----------------------------------------|--------------------------------|
|-7-7-10-10-9-9-10-10-12-12-10-10-9-9-2-2-|-3-3-10-10-9-9-10-10-17--(17)/--|
|-x-x--x--x-x-x--x--x--x--x--x--x-x-x-x-x-|-x-x--x--x-x-x--x--x--x---(x)/--|
|-5-5--8--8-7-7--8--8-10-19--8--8-7-7-0-0-|-1-1--8--8-7-7--8--8-15--(15)/--|
|-----------------------------------------|--------------------------------|


   Chorus
    D5                    C5      Bb5                   C5
    E E S S  S   S  E E S E +S    E E S S  S   S  E E S E +S
||------------------------------|--------------------------------||
||o-----------------------------|-----------------------------o--||
||--7-7-x-x---7-7-x-5-(5)-|-3-3-x-x---3-3-x-5-(5)----------------||
||--7-7-x-x---7-7-x-5-(5)-|-3-3-x-x---3-3-x-5-(5)----------------||
||o-5-5-x-x---5-5-x-3-(3)-|-1-1-x-x---1-1-x-3-(3)-o--------------||
||------------------------------|--------------------------------||


   Out-Chorus
    D5                    C5       Bb5                   C5
    E E S S  S   S  E E S  E +S    E E S S  S   S  E E S E +S   4x
||-------------------------------|--------------------------------||
||o------------------------------|-----------------------------o--||
||--7-7-x-x---7-7-x--5-(5)-|-3-3-x-x---3-3-x-5-(5)----------------||
||--7-7-x-x---7-7-x--5-(5)-|-3-3-x-x---3-3-x-5-(5)----------------||
||o-5-5-x-x---5-5-x--3-(3)-|-1-1-x-x---1-1-x-3-(3)-o--------------||
||-------------------------------|--------------------------------||
|
|   Gtr III
|   E E S S  S   S  E E S  E  S    E E S S  S   S  E E S E  S   4x
||-------------------------------|------------------------------||
||o------------------------------|-----------------------------o||
||--7-7-7-7--7---7--7-7-7S10-10--|-3-3-3-3--3---3--3-3-3S5--5---||
||--x-x-x-x--x---x--x-x-xS=x--x--|-x-x-x-x--x---x--x-x-xSx--x---||
||o-5-5-5-5--5---5--5-5-5S=8--8--|-1-1-1-1--1---1--1-1-1S3--3--o||
||-------------------------------|------------------------------||


  D5
  W          +W
|----------|--------*|
|----------|--------*|
|----------|--------*|
|-0--------|-(0)----*|
|-0--------|-(0)----*|
|-0--------|-(0)----*|


--------------------------------------------------------------------------------


Duration Legend
---------------
W - whole; H - half; Q - quarter; E - 8th; S - 16th; T - 32nd; X - 64th; a - acciaccatura
+ - note tied to previous; . - note dotted; .. - note double dotted
Uncapitalized letters represent notes that are staccato (1/2 duration)
Irregular groupings are notated above the duration line
Duration letters will always appear directly above the note/fret number it represents the
duration for.  Duration letters with no fret number below them represent rests.  Multi-
bar rests are notated in the form Wxn, where n is the number of bars to rest for.  Low
melody durations appear below the staff

Tablature Legend
----------------
 h   - hammer-on
 p   - pull-off
 b   - bend
 pb  - pre-bend
 r   - bend release (if no number after the r, then release immediately)
 /\  - slide into or out of (from/to "nowhere")
 s   - legato slide
 S   - shift slide
 - natural harmonic
[n]  - artificial harmonic
n(n) - tapped harmonic
 ~   - vibrato
 tr  - trill
 T   - tap
 TP  - trem. picking
 PM  - palm muting
\n/  - tremolo bar dip; n = amount to dip
 \n  - tremolo bar down
 n/  - tremolo bar up
/n\  - tremolo bar inverted dip
 =   - hold bend; also acts as connecting device for hammers/pulls
 <> - volume swell (louder/softer)
 x   - on rhythm slash represents muted slash
 o   - on rhythm slash represents single note slash

Misc Legend
-----------
 |  - bar
||  - double bar
||o - repeat start
o|| - repeat end
*|  - double bar (ending)
 :  - bar (freetime)
 $  - Segno
 &  - Coda
Tempo markers -  = BPM(8/16=s8/s16), where s8 = swing 8ths, s16 = swing 16ths
            
Submit corrections

comments powered by Disqus
↑ Back to top | 12 Stones Tabs for Broken. Lyrics for acoustic guitar and electric guitar. 1 Tablatures and chords are parodies/interpretations of the original songs. You may use it for private study, scholarship, research or language learning purposes only