» » »

12 Stones, Broken Tabs (ver.1)

Artists:  A B C D E F G H I J K L M N O P Q R S T U V W X Y Z # 

Broken Tabs (ver.1)

12 Stones Tabs
 Rating:
3/5 (47 votes)
Broken lessons Tabs too difficult? Try these video lessons and learn fast
1
                I was sick of no tabs for this in drop c, so i made 1, nd i did it for 1 guitar, but
2 in the recording

Intro/ Chorus:
d----------------------------------------------------------------------|
a----------------------------------------------------------------------|
f-4---4---4---x-x--9--9-9-/-7-7-/-5-5-x-x-x--5-5-5/-7-7--9-9-9---------|
c-2--2--2--x-x--9--9-9-/-7-7-/-5-5-x-x-x--5-5-5/-7-7--9-9-9------------|
g-2--2--2--x-x--7--7-7-/-5-5-/-3-3-x-x-x--3-3-3/-5-5--7-7-7------------|
c-2--2--2--------------------------------------------------------------|


d-------------------------------------------------------------------------|
a-------------------------------------------------------------------------|
f-------x-x-x----9--9--9----12--12--5-5-x-x-x-5-5-5--7-7-/-9-9------------|
c-------x-x-x----9--9--9----12--12--5-5-x-x-x-5-5-5--7-7-/-9-9------------|
g-------x-x-x----7--7--7----10--10--3-3-x-x-x-3-3-3--5-5-/-7-7------------|
c-------------------------------------------------------------------------|

Verse:
d--------------------------------------------------------------------------|
a--------0-----------------------------------------------------------------|
f----------0----0----0------0---------0------------------------------------|
c----5--------------------0------------------------------------------------|
g--7---------7h9--7h9---3-----3-3-3h5--------------------------------------|
c----------------------------------------------------------------||repeat--| 6x

Chorus: same as intro, except the very first part of the intro repeats in the chorus a
of times before the second part, u'l hear it

Bridge:
d------------------------------------------------------------------------|
a------------------------------------------------------------------------|
f---4-4---12-12-12-12-12/-14--4-4--12/-11-11-11-11-11/-9-----------------|
c---x-x---x--x--x--x--x-/-x---x-x--x-/--x--x-x---x--x/-x-----------------|
g---2-2---10-10-10-10-10/-12--2-2--10/--9--9--9--9--9/-7-----------------|
c--------------------------------------------------------------- repeat--| 4x

Solo: Palm mute, first time round

d----------------------------------------------------------------|
a----------------------------------------------------------------|
f----------------------------------------------------------------|
c----------------------------------------------------------------|
g---7-7--10-10--9-9--10-10--12-12--10-10--9-9--7-7---------------|
c----------------------------------------------------------------|
    . .    . .   . .  . .   .   .   .  .  . .  . .


d----------------------------------------------------------------|
a----------------------------------------------------------------|
f----------------------------------------------------------------|
c---------------------------12-12--10-10--9-9--------------------|
g---7-7--10-10--9-9--10-10---------------------10-10-------------|
c----------------------------------------------------------------|
    . .  .  .   . .  .  .   .   .   .  .  . .   .  .

repeat as many times a necessary.... i think thats about it, have fun
            
Submit corrections

comments powered by Disqus
↑ Back to top | 12 Stones Tabs for Broken. Lyrics for acoustic guitar and electric guitar. 1 Tablatures and chords are parodies/interpretations of the original songs. You may use it for private study, scholarship, research or language learning purposes only