» » »

Bitter Tabs (ver.3)

Artists:  A B C D E F G H I J K L M N O P Q R S T U V W X Y Z # 

Bitter Tabs (ver.3)

12 Stones
Rating:
0/5 (0 votes)

Hard to play? Try these video lessons and learn fast.
                this is my first tab so it's probably awfull but 12 stones desrves to be played (if it
wheren't for them i would still be listening to country western) the song is played in
drop D high to low (e,b,g,d,a,D)
INTRO (clean)
e---------------------------------------------------------------------------|
b---------------------------------------------------------------------------|
g---------------------------------------------------------------------------|
d-4--2--6--4----4--2--6--7--------------------------------------------------|
a-2--0--4--0----2--0--4--0--------------------------------------------------|
D-2--0--4--0----2--0--4--0--------------------------------------------------|

PRE-VERSE (distorted)
e------------------------------------------|
b------------------------------------------|
g------------------------------------------|
d-2-2-0-0-4-4-2-2--4----2-2-0-0-4-4-2-2--7-|
a-2-2-0-0-4-4-2-2-------2-2-0-0-4-4-2-2----|
D-2-2-0-0-4-4-2-2-------2-2-0-0-4-4-2-2----|
VERSE (clean) listen to the song to know when to play the extra 040 and 070
e----------------------------------------------------------|
b----------------------------------------------------------|
g----------------------------------------------------------|
d-----4----2-----6-----4-4------4-----2------6----7-7------|
a---2----0-----4-----0--0-0---2-----0------4----0--0-0-----|
D-2----0-----4-----0--------2-----0------4----0------------|
CHORUS (distorted)
after the 44447777 (although i don't know if it's correct) you don't play the 00-0 it
just goes strait the 444 thing if you listen to the song you'll know what i'm talking
about

e-----------------------------------------------------------------------|
b-----------------------------------------------------------------------|
g------------------------------------------------------44447777---------|
d-00-04-4-4--7-7-7-7--2-2-2--00-04-4-4--7-7-7-7--2-2-2------------------|
a-00-04-4-4--7-7-7-7--2-2-2--00-04-4-4--7-7-7-7--2-2-2------------------|
D-00-04-4-4--7-7-7-7--2-2-2--00-04-4-4--7-7-7-7--2-2-2------------------|
BRIDGE (distorted)
i am almost positive this is wrong i was hoping that this would be close so you could
figure it out

e-----------------------------------------------------------------------|
b-----------------------------------------------------------------------|
g-----------------------------------------------------------------------|
d-2-2-2-2-2-2-2-2-4-4-4-4-4-4-4-4-7-7-7-7-7-7-7-7-9-9-9-9-9-9-9-9-------|
a-2-2-2-2-2-2-2-2-4-4-4-4-4-4-4-4-7-7-7-7-7-7-7-7-9-9-9-9-9-9-9-9-------|
D-2-2-2-2-2-2-2-2-4-4-4-4-4-4-4-4-7-7-7-7-7-7-7-7-9-9-9-9-9-9-9-9-------|

ORDER
INTRO x1
PREVERSE x2
VERSE x4
CHORUS x2
PREVERSE x1
INTRO x1
VERSE x3
CHORUS x2
BRIDGE x2
CHORUS x2
PREVERSE/SOLO x2 at the last preverse you don't play the 7

i'm sorry about the solo i wasn't able to tab it
            
Hard to play? Try these video lessons and learn fast. | Correct




comments powered by Disqus
↑ Back to top | Tablatures and chords are parodies/interpretations of the original songs. You may use it for private study, scholarship, research or language learning purposes only