» » »

10 Years, When Will You Breathe Tabs (ver.2)

Artists:  A B C D E F G H I J K L M N O P Q R S T U V W X Y Z # 

When Will You Breathe Tabs (ver.2)

10 Years Tabs
 Rating:
4/5 (4 votes)
When Will You Breathe lessons Tabs too difficult? Try these video lessons and learn fast
1
                -------------------------------------------------------------------------------
                             When Will You Breathe - 10 Years
-------------------------------------------------------------------------------

Tuning: Drop Db (Db Ab Db Gb Bb Eb)
Time Signature: 3/4

Intro A
Eb|----------1--0---------------------1--0-------------------|
Bb|----------------3-1----------------------3-1--------------|
Gb|-----0h2----------------------0h2-------------------------|
Db|--0------------------------0------------------------------|
Ab|----------------------------------------------------------|
Db|----------------------------------------------------------|


Intro B/Verse 1
Eb|--------------|-1-----0-----|--------3---3-|-------3---3--|
Bb|--------------|-----------3-|--------x---x-|-------x---x--|
Gb|--------0h2---|-------------|--------x---x-|-------x---x--| (x6)
Db|--0---0-----0-|-----0---0---|--3---3-3-3-3-|-3---3-3-3-3--|
Ab|--0---0-----0-|-----0---0---|--3---3-3-3-3-|-3---3-3-3-3--|
Db|--0---0-----0-|-----0---0---|--3---3-3-3-3-|-3---3-3-3-3--|


Chorus
Eb|--------5---5-|-------5---5-|--------3---3-|-------3---3--|
Bb|--------x---x-|-------x---x-|--------x---x-|-------x---x--|
Gb|--------x---x-|-------x---x-|--------x---x-|-------x---x--| (x3)
Db|--5---5-5-5-5-|-5---5-5-5-5-|--3---3-3-3-3-|-3---3-3-3-3--|
Ab|--5---5-5-5-5-|-5---5-5-5-5-|--3---3-3-3-3-|-3---3-3-3-3--|
Db|--5---5-5-5-5-|-5---5-5-5-5-|--3---3-3-3-3-|-3---3-3-3-3--|

Eb|--------5---5-|-------5---5-|--------8---8-|-------8---8--|
Bb|--------x---x-|-------x---x-|--------x---x-|-------x---x--|
Gb|--------x---x-|-------x---x-|--------x---x-|-------x---x--|
Db|--5---5-5-5-5-|-5---5-5-5-5-|--8---8-8-8-8-|-8---8-8-8-8--|
Ab|--5---5-5-5-5-|-5---5-5-5-5-|--8---8-8-8-8-|-8---8-8-8-8--|
Db|--5---5-5-5-5-|-5---5-5-5-5-|--8---8-8-8-8-|-8---8-8-8-8--|


Verse 2
Eb|--------------|-1-----0-----|--------3---3-|-------3---3--|
Bb|--------------|-----------3-|--------x---x-|-------x---x--|
Gb|--------0h2---|-------------|--------x---x-|-------x---x--| (x6)
Db|--0---0-----0-|-----0---0---|--3---3-3-3-3-|-3---3-3-3-3--|
Ab|--0---0-----0-|-----0---0---|--3---3-3-3-3-|-3---3-3-3-3--|
Db|--0---0-----0-|-----0---0---|--3---3-3-3-3-|-3---3-3-3-3--|


Chorus 2
Eb|--------5---5-|-------5---5-|--------3---3-|-------3---3--|
Bb|--------x---x-|-------x---x-|--------x---x-|-------x---x--|
Gb|--------x---x-|-------x---x-|--------x---x-|-------x---x--| (x3)
Db|--5---5-5-5-5-|-5---5-5-5-5-|--3---3-3-3-3-|-3---3-3-3-3--|
Ab|--5---5-5-5-5-|-5---5-5-5-5-|--3---3-3-3-3-|-3---3-3-3-3--|
Db|--5---5-5-5-5-|-5---5-5-5-5-|--3---3-3-3-3-|-3---3-3-3-3--|

Eb|--------5---5-|-------5---5-|--------8-8-8-|-8-8-8-8-8-8--|
Bb|--------x---x-|-------x---x-|--------x-x-x-|-x-x-x-x-x-x--|
Gb|--------x---x-|-------x---x-|--------x-x-x-|-x-x-x-x-x-x--|
Db|--5---5-5-5-5-|-5---5-5-5-5-|--8---8-8-8-8-|-8-8-8-8-8-8--|
Ab|--5---5-5-5-5-|-5---5-5-5-5-|--8---8-8-8-8-|-8-8-8-8-8-8--|
Db|--5---5-5-5-5-|-5---5-5-5-5-|--8---8-8-8-8-|-8-8-8-8-8-8--|


Bridge
Eb|--------------|-------------|--------------|--------------|
Bb|--------------|-------------|--------------|--------------|
Gb|--------10--10|-9-----5-----|--------5---5-|-------5---5--| (x3)
Db|--0---0-0-0-0-|-0---0-0-0-0-|--3---3-3-3-3-|-3---3-3-3-3--|
Ab|--0---0-0-0-0-|-0---0-0-0-0-|--3---3-3-3-3-|-3---3-3-3-3--|
Db|--0---0-0-0-0-|-0---0-0-0-0-|--3---3-3-3-3-|-3---3-3-3-3--|

Eb|--------------|-------------|--------------|--------------|
Bb|--------------|-------------|--------------|--------------|
Gb|--------10--10|-9-----5-----|--------------|--------------|
Db|--0---0-0-0-0-|-0---0-0-0-0-|--3-----------|--------------|
Ab|--0---0-0-0-0-|-0---0-0-0-0-|--3-----------|--------------|
Db|--0---0-0-0-0-|-0---0-0-0-0-|--3-----------|--------------|


Verse 3
Eb|--------------|-1-----0-----|--------3---3-|-------3---3--|
Bb|--------------|-----------3-|--------x---x-|-------x---x--|
Gb|--------0h2---|-------------|--------x---x-|-------x---x--| (x8)
Db|--0---0-----0-|-----0---0---|--3---3-3-3-3-|-3---3-3-3-3--|
Ab|--0---0-----0-|-----0---0---|--3---3-3-3-3-|-3---3-3-3-3--|
Db|--0---0-----0-|-----0---0---|--3---3-3-3-3-|-3---3-3-3-3--|


Chorus 3
Eb|--------5---5-|-------5---5-|--------3---3-|-------3---3--|
Bb|--------x---x-|-------x---x-|--------x---x-|-------x---x--|
Gb|--------x---x-|-------x---x-|--------x---x-|-------x---x--| (x3)
Db|--5---5-5-5-5-|-5---5-5-5-5-|--3---3-3-3-3-|-3---3-3-3-3--|
Ab|--5---5-5-5-5-|-5---5-5-5-5-|--3---3-3-3-3-|-3---3-3-3-3--|
Db|--5---5-5-5-5-|-5---5-5-5-5-|--3---3-3-3-3-|-3---3-3-3-3--|

Eb|--------5---5-|-------5---5-|--------8---8-|-------8---8--|
Bb|--------x---x-|-------x---x-|--------x---x-|-------x---x--|
Gb|--------x---x-|-------x---x-|--------x---x-|-------x---x--|
Db|--5---5-5-5-5-|-5---5-5-5-5-|--8---8-8-8-8-|-8---8-8-8-8--|
Ab|--5---5-5-5-5-|-5---5-5-5-5-|--8---8-8-8-8-|-8---8-8-8-8--|
Db|--5---5-5-5-5-|-5---5-5-5-5-|--8---8-8-8-8-|-8---8-8-8-8--|


Bridge 2
Eb|--------------|-------------|--------------|--------------|
Bb|--------------|-------------|--------------|--------------|
Gb|--------10--10|-9-----5-----|--------5---5-|-------5---5--| (x7)
Db|--0---0-0-0-0-|-0---0-0-0-0-|--3---3-3-3-3-|-3---3-3-3-3--|
Ab|--0---0-0-0-0-|-0---0-0-0-0-|--3---3-3-3-3-|-3---3-3-3-3--|
Db|--0---0-0-0-0-|-0---0-0-0-0-|--3---3-3-3-3-|-3---3-3-3-3--|

Eb|--------------|-------------|--------------|--------------|
Bb|--------------|-------------|--------------|--------------|
Gb|--------10--10|-9-----5-----|--------------|--------------|
Db|--0---0-0-0-0-|-0---0-0-0-0-|--3-----------|--------------|
Ab|--0---0-0-0-0-|-0---0-0-0-0-|--3-----------|--------------|
Db|--0---0-0-0-0-|-0---0-0-0-0-|--3-----------|--------------|

(Try to play the notes above the power chords louder so they're audible)

Outro
Eb|--------------|-1-----0-----|--------3---3-|-------3---3--|
Bb|--------------|-----------3-|--------x---x-|-------x---x--|
Gb|--------0h2---|-------------|--------x---x-|-------x---x--|
Db|--0---0-----0-|-----0---0---|--3---3-3-3-3-|-3---3-3-3-3--|
Ab|--0---0-----0-|-----0---0---|--3---3-3-3-3-|-3---3-3-3-3--|
Db|--0---0-----0-|-----0---0---|--3---3-3-3-3-|-3---3-3-3-3--|

Eb|--------------|-1-----0-----|--------------|--------------|
Bb|--------------|-----------3-|--------------|--------------|
Gb|--------0h2---|-----------x-|--------------|--------------|
Db|--0---0-----0-|-----------0-|--3-----------|--------------|
Ab|--0---0-----0-|-----------0-|--3-----------|--------------|
Db|--0---0-----0-|-----------0-|--3-----------|--------------|


************************************

| /   slide up
| \   slide down
| h   hammer-on
| p   pull-off
| ~   let ring
| x   Mute note

************************************
            
Submit corrections

comments powered by Disqus
↑ Back to top | 10 Years Tabs for When Will You Breathe. Lyrics for acoustic guitar and electric guitar. 1 Tablatures and chords are parodies/interpretations of the original songs. You may use it for private study, scholarship, research or language learning purposes only